>
 >
China Lady

China Lady Bass Tabs

Accept - China Lady chords, tabs, tablatures, lyrics

Guitar lessons | Add/correct | Request | Top 50 tabs Artists:  A B C D E F G H I J K L M N O P Q R S T U V W X Y Z 0-9

China Lady Bass Tabs – Accept

CD, Sheet music, Poster

Do you like China Lady? Share with your friends now
Bass Tabs
                                  China Lady                                    


                                                                          Accept
Bass


                                                      
     Q                  E  E     E  E  H.              H        E  E  E  E   
G||---------------------------|---------------------|-----------------------|
D||---------------------------|---------------------|-----------------------|
A||---------------------------|---------------------|-----------4--3--------|
E||------------------------3--|--L------------------|-----------------6--3--|


  E  H.           E     E  E  E  E  Q    E  E     E  E  H.            
---------------------|-------------------------|---------------------|
---------------------|--------3--5--L----L-----|---------------------|
---------------------|--3--5-------------------|---------------------|
--L------------------|----------------------3--|--L------------------|


  H        E  E  E  E     E  E  H.              E  E  E  E  E  E  E  E   
-----------------------|---------------------|--------------------------|
-----------------------|---------------------|--3--------3--------------|
-----------4--3--------|---------------------|-----5--3-----5--3--------|
-----------------6--3--|--L------------------|--------------------6--3--|


  E  E  E  E  E  E  E  E     E  E  E  E  E  E  E  E   
--------------------------|--------------------------|
--------------------------|--------------------------|
--------------------------|--------------4--3--------|
--L--3--3-----3-----3-----|--3-----3-----------6--3--|


  E  E  E  E  E  E  E  E     E  E  E  E  Q    E  E     E  E  E  E  E  E  E  E   
--------------------------|-------------------------|--------------------------|
--------------------------|--------3--5--L----L-----|--------------------------|
--------------------------|--3--5-------------------|--------------------------|
--L--3--3-----3-----3--6--|----------------------3--|--L--3--3-----3-----3-----|


  E  E  E  E  E  E  E  E     E  E  E  E  E  E  E  E   
--------------------------|--------------------------|
--------------------------|--------------------------|
--------------4--3--------|-----------------------5--|
--3-----3-----------6--3--|--L--3--3-----3-----3-----|


   E  E  E  E  E  E  E  E     Q    E  E  E  E  E  E     Q    E  E  E  E  E  E   
---------------------------|-------------------------|-------------------------|
--/5--5--5--5--------------|-------------------------|-------------------------|
---------------5--4--3-----|-------------------------|-------------------------|
------------------------6--|--3-------3--3--3--3--3--|--1-------1--1--1--1--1--|


  Q    E  E  E  E  E  E     Q    E  E  E   E  E  E     Q    E  E  E  E  E  E   
-------------------------|--------------------------|-------------------------|
-------------------------|--------------------------|-------------------------|
--1-------1--1--1--1--1--|--3-------3--1p--0--------|-------------------------|
-------------------------|--------------------1--3--|--L-------3--3--3--3--3--|


  Q    E  E  E  E  E  E     Q    E  E  E  E  E  E     Q    E  E  E  E  E  E   
-------------------------|-------------------------|-------------------------|
-------------------------|-------------------------|-------------------------|
-------------------------|--1-------1--1--1--1--1--|--3-------3--3--3--3--3--|
--1-------1--1--1--1--1--|-------------------------|-------------------------|


  E  E  E  E  E  E  E  E     Q    E  Q    E  Q       E  E  E  E  E  E  E  E   
--------------------------|-----------------------|--------------------------|
--------------------------|-----------------------|--------------------------|
--5-----5-----5-----5-----|--1-------3----3--3----|--5-----5-----5-----5-----|
--------------------------|-----------------------|--------------------------|


  E  E  E  Q    E  Q       E  E  E  E  E  E  E  E     Q    E  Q    E  Q     
------------------------|--------------------------|-----------------------|
------------------------|--------------------------|-----------------------|
--5--5-----3----3--3----|--5-----5-----5-----5-----|--1-------3----3--3----|
------------------------|--------------------------|-----------------------|


  E  E  E  E  E  E  E  E     E  E  E  Q    E  E  E     E  E  E  E  E  E  E  E   
--------------------------|-------------------------|--------------------------|
--------------------------|--3--3-------------------|--------------------------|
--5-----5-----5-----5-----|-----------3----3--3-----|--------------------------|
--------------------------|----------------------3--|--L--3--3-----3-----3-----|


  E  E  E  E  E  E  E  E     E  E  E  E  E  E  E  E     E  E  E  E  Q    E  E   
--------------------------|--------------------------|-------------------------|
--------------------------|--------------------------|--------3--5--L----L-----|
--------------4--3--------|--------------------------|--3--5-------------------|
--3-----3-----------6--3--|--L--3--3-----3-----3--6--|----------------------3--|


  E  E  E  E  E  E  E  E     E  E  E  E  E  E  E  E   
--------------------------|--------------------------|
--------------------------|--------------------------|
--------------------------|--------------4--3--------|
--L--3--3-----3-----3-----|--3-----3-----------6--3--|


  E  E  E  E  E  E  E  E      E  E  E  E  E  E  E  E   
--------------------------|---------------------------|
--------------------------|--/5--5--5--5--------------|
-----------------------5--|---------------5--4--3-----|
--L--3--3-----3-----3-----|------------------------6--|


  Q    E  E  E  E  E  E     Q    E  E  E  E  E  E     Q    E  E  E  E  E  E   
-------------------------|-------------------------|-------------------------|
-------------------------|-------------------------|-------------------------|
-------------------------|-------------------------|--1-------1--1--1--1--1--|
--3-------3--3--3--3--3--|--1-------1--1--1--1--1--|-------------------------|


  Q    E  E  E   E  E  E     Q    E  E  E  E  E  E     Q    E  E  E  E  E  E   
--------------------------|-------------------------|-------------------------|
--------------------------|-------------------------|-------------------------|
--3-------3--1p--0--------|-------------------------|-------------------------|
--------------------1--3--|--L-------3--3--3--3--3--|--1-------1--1--1--1--1--|


  Q    E  E  E  E  E  E     Q    E  E  E  E  E  E     E  E  E  E  E  E  E  E   
-------------------------|-------------------------|--------------------------|
-------------------------|-------------------------|--------------------------|
--1-------1--1--1--1--1--|--3-------3--3--3--3--3--|--5-----5-----5-----5-----|
-------------------------|-------------------------|--------------------------|


  Q    E  Q    E  Q       E  E  E  E  E  E  E  E     E  E  E  Q    E  Q     
-----------------------|--------------------------|------------------------|
-----------------------|--------------------------|------------------------|
--1-------3----3--3----|--5-----5-----5-----5-----|--5--5-----3----3--3----|
-----------------------|--------------------------|------------------------|


  E  E  E  E  E  E  E  E     Q    E  Q    E  Q       E  E  E  E  E  E  E  E   
--------------------------|-----------------------|--------------------------|
--------------------------|-----------------------|--------------------------|
--5-----5-----5-----5-----|--1-------3----3--3----|--5-----5-----5-----5-----|
--------------------------|-----------------------|--------------------------|


  E  E  E  Q    E  E  E     E  E  E  E  E  E  E  E     E  E  E  E  E  E  E  E   
-------------------------|--------------------------|--------------------------|
--3--3-----5----5--5--5--|--------------------------|--------------------------|
-------------------------|--------------------------|--3-----3-----3--3--3--3--|
-------------------------|--5-----5-----5-----5--5--|--------------------------|


  E  E  E  E  E  E  E  E     E  E  E  Q    E  E  E     E  E  E  E  E  E  E  E   
--------------------------|-------------------------|--------------------------|
--------------------------|-------------------------|--------------------------|
--------------------------|-------------------------|--------------------------|
--1-----1-----1--1--1--1--|--0-----0-------0--0--0--|--5-----5-----5-----5--5--|


  E  E  E  E  E  E  E  E     E  E  E  E  E  E  E  E     E  E  E  Q    E  E  E   
--------------------------|--------------------------|-------------------------|
--------------------------|--------------------------|-------------------------|
--3-----3-----3--3--3--3--|--------------------------|-------------------------|
--------------------------|--1-----1-----1--1--1--1--|--0-----0-------0--0--0--|


  E  E  E  E  E  E  E  E     E  E  E  E  E  E  E  E   
--------------------------|--------------------------|
--------------------------|--------------------------|
--------------------------|--3-----3-----3--3--3--3--|
--5-----5-----5-----5--5--|--------------------------|


  E  E  E  E  E  E  E  E     E  E  E  Q    E  E  E     E  E  E  E  E  E  E  E   
--------------------------|-------------------------|--------------------------|
--------------------------|-------------------------|--------------------------|
--------------------------|-------------------------|--------------------------|
--1-----1-----1--1--1--1--|--0-----0-------0--0--0--|--3-----3--3--3-----3--3--|


  E  E  E  E  E  E  E  E     E  E  E  E  E  E  E  E     E  E  E  E  E  E  Q     
--------------------------|--------------------------|-------------------------|
--------------------------|--------------------------|-------------------------|
-----------1-----3--------|--------------------------|--1--1--1--3--L--3--3----|
--3--3--3--------------3--|--3-----3--3--3-----3--3--|-------------------------|


  E  E  E  E  E  E  E  E     E  E  E  E  E  E  E  E   
--------------------------|--------------------------|
--------------------------|--------------------------|
--------------------------|-----------1-----3--------|
--3-----3--3--3-----3--3--|--3--3--3--------------3--|


  E  E  E  E  E  E  E  E     E  Q    E  E  E  Q       Q    E  E  E  E  E  E   
--------------------------|------------------------|-------------------------|
--------------------------|------------------------|-------------------------|
--------------------------|--1-------1--3--3--3----|-------------------------|
--3-----3--3--3-----3--3--|------------------------|--3-------3--3--3--3--3--|


  Q    E  E  E  E  E  E     Q    E  E  E  E  E  E     Q    E  E  E   E  E  E   
-------------------------|-------------------------|--------------------------|
-------------------------|-------------------------|--------------------------|
-------------------------|--1-------1--1--1--1--1--|--3-------3--1p--0--------|
--1-------1--1--1--1--1--|-------------------------|--------------------1--3--|


  Q    E  E  E  E  E  E     Q    E  E  E  E  E  E     Q    E  E  E  E  E  E   
-------------------------|-------------------------|-------------------------|
-------------------------|-------------------------|-------------------------|
-------------------------|-------------------------|--1-------1--1--1--1--1--|
--L-------3--3--3--3--3--|--1-------1--1--1--1--1--|-------------------------|


  Q    E  E  E  E  E  E     E  E  E  E  E  E  E  E     Q    E  Q    E  Q     
-------------------------|--------------------------|-----------------------|
-------------------------|--------------------------|-----------------------|
--3-------3--3--3--3--3--|--5-----5-----5-----5-----|--1-------3----3--3----|
-------------------------|--------------------------|-----------------------|


  E  E  E  E  E  E  E  E     E  E  E  Q    E  Q       E  E  E  E  E  E  E  E   
--------------------------|------------------------|--------------------------|
--------------------------|------------------------|--------------------------|
--5-----5-----5-----5-----|--5--5-----3----3--3----|--5-----5-----5-----5-----|
--------------------------|------------------------|--------------------------|


  Q    E  Q    E  Q       E  E  E  E  E  E  E  E     E  E  E  Q    E  E  E   
-----------------------|--------------------------|-------------------------|
-----------------------|--------------------------|--3--3-----5----5--5--5--|
--1-------3----3--3----|--5-----5-----5-----5-----|-------------------------|
-----------------------|--------------------------|-------------------------|


  E  E  E  E  E  E  E  E     E  E  E  E  E  E  E  E   
--------------------------|--------------------------|
--------------------------|--------------------------|
--------------------------|--3-----3-----3--3--3--3--|
--5-----5-----5-----5--5--|--------------------------|


  E  E  E  E  E  E  E  E     E  E  E  Q    E  E  E     E  E  E  E  E  E  E  E   
--------------------------|-------------------------|--------------------------|
--------------------------|-------------------------|--------------------------|
--------------------------|-------------------------|--------------------------|
--1-----1-----1--1--1--1--|--0-----0-------0--0--0--|--5-----5-----5-----5--5--|


  E  E  E  E  E  E  E  E     E  E  E  E  E  E  E  E     E  E  E  Q    E  E  E   
--------------------------|--------------------------|-------------------------|
--------------------------|--------------------------|-------------------------|
--3-----3-----3--3--3--3--|--------------------------|-------------------------|
--------------------------|--1-----1-----1--1--1--1--|--0-----0-------0--0--0--|


  E  E  E  E  E  E  E  E     E  E  E  E  E  E  E  E   
--------------------------|--------------------------|
--------------------------|--------------------------|
--------------------------|--3-----3-----3--3--3--3--|
--5-----5-----5-----5--5--|--------------------------|


  E  E  E  E  E  E  E  E     E  E  E  Q    E  E  E     E  E  E  E  E  E  E  E   
--------------------------|-------------------------|--------------------------|
--------------------------|-------------------------|--------------------------|
--------------------------|-------------------------|--5-----5-----5-----5-----|
--1-----1-----1--1--1--1--|--0-----0-------0--0--0--|--------------------------|


  Q    E  Q    E  Q       E  E  E  E  E  E  E  E     E  E  E  Q    E  Q     
-----------------------|--------------------------|------------------------|
-----------------------|--------------------------|------------------------|
--1-------3----3--3----|--5-----5-----5-----5-----|--5--5-----3----3--3----|
-----------------------|--------------------------|------------------------|


  E  E  E  E  E  E  E  E     Q    E  Q    E  Q       E  E  E  E  E  E  E  E   
--------------------------|-----------------------|--------------------------|
--------------------------|-----------------------|--------------------------|
--5-----5-----5-----5-----|--1-------3----3--3----|--5-----5-----5-----5-----|
--------------------------|-----------------------|--------------------------|


  E  E  E  Q    E  E  E     E  E  E  E  E  E  E  E     E  E  E  E  E  E  E  E   
-------------------------|--------------------------|--------------------------|
--3--3-----5----5--5--5--|--------------------------|--------------------------|
-------------------------|--------------------------|--3-----3-----3--3--3--3--|
-------------------------|--5-----5-----5-----5--5--|--------------------------|


  E  E  E  E  E  E  E  E     E  E  E  Q    E  E  E     E  E  E  E  E  E  E  E   
--------------------------|-------------------------|--------------------------|
--------------------------|-------------------------|--------------------------|
--------------------------|-------------------------|--------------------------|
--1-----1-----1--1--1--1--|--0-----0-------0--0--0--|--5-----5-----5-----5--5--|


  E  E  E  E  E  E  E  E     E  E  E  E  E  E  E  E     E  E  E  Q    E  E  E   
--------------------------|--------------------------|-------------------------|
--------------------------|--------------------------|-------------------------|
--3-----3-----3--3--3--3--|--------------------------|-------------------------|
--------------------------|--1-----1-----1--1--1--1--|--0-----0-------0--0--0--|


  E  E  E  E  E  E  E  E     E  E  E  E  E  E  E  E   
--------------------------|--------------------------|
--------------------------|--------------------------|
--------------------------|--3-----3-----3--3--3--3--|
--5-----5-----5-----5--5--|--------------------------|


  E  E  E  E  E  E  E  E     E  E  E  Q    E  E  E     E  E  E  E  E  E  E  E   
--------------------------|-------------------------|--------------------------|
--------------------------|-------------------------|--------------------------|
--------------------------|-------------------------|--------------------------|
--1-----1-----1--1--1--1--|--0-----0-------0--0--0--|--5-----5-----5-----5--5--|


  E  E  E  E  E  E  E  E     E  E  E  E  E  E  E  E     E  E  E  Q    E  E  E   
--------------------------|--------------------------|-------------------------|
--------------------------|--------------------------|-------------------------|
--3-----3-----3--3--3--3--|--------------------------|-------------------------|
--------------------------|--1-----1-----1--1--1--1--|--0-----0-------0--0--0--|


  E  E  E  E  E  E  E  E     E  E  E  E  E  E  E  E   
--------------------------|--------------------------|
--------------------------|--------------------------|
--------------------------|--3-----3-----3--3--3--3--|
--5-----5-----5-----5--5--|--------------------------|


  E  E  E  E  E  E  E  E     E  E  E  Q    E  E  E     E  E  E  E  E  E  E  E   
--------------------------|-------------------------|--------------------------|
--------------------------|-------------------------|--------------------------|
--------------------------|-------------------------|--------------------------|
--1-----1-----1--1--1--1--|--0-----0-------0--0--0--|--5-----5-----5-----5--5--|


  E  E  E  E  E  E  E  E     E  E  E  E  E  E  E  E     W                 
--------------------------|--------------------------|-------------------|
--------------------------|--------------------------|-------------------|
--3-----3-----3--3--3--3--|--------------------------|-------------------|
--------------------------|--1-----1-----1--1--1--1--|--0----------------|


  W                   W                   W                   W                 
-------------------|-------------------|-------------------|-------------------|
-------------------|-------------------|-------------------|-------------------|
-------------------|-------------------|-------------------|-------------------|
--L----------------|--0----------------|--L----------------|--L----------------|


  Q    E  E  H          
----------------------||
----------------------||
----------------------||
--5----5--------------||




Duration Legend
---------------
W - whole
H - half
Q - quarter
E - 8th
S - 16th
T - 32nd
X - 64th
. - note dotted
|-n-|  - n-tuplets


Tablature Legend
----------------
L - tied note
x - dead note
g - grace note
(n) - ghost note
> - accentuded note
NH - natural harmonic
AH - artificial harmonic
TH - tapped harmonic
SH - semi harmonic
PH - pitch harmonic
h - hammer on
p - pull off
b - bend
br - bendRelease
pb - preBend
pbr - preBendRelease
brb - bendReleaseBend
\n/ - tremolo bar dip
\n - tremolo bar dive
-/n - tremolo bar Release up
/n\ - tremolo bar inverted dip
/n - tremolo bar return
-\n - tremolo bar Release down
S - shift slide
s - legato slide
/ -  slide into from below or out of upwards
\ -  slide into from above or out of downwards
~ - vibrato
W - wide vibrato
tr - trill
TP - tremolo picking
T - tapping
S - slap
P - pop
< - fade in
^ - brush up
v - brush down





Comments


Popular Accept tabs & chords
Balls To The Wall Bass Tabs
Flash Rocking Man Bass Tabs
Living For Tonight Bass Tabs
London Leatherboys 2 Bass Tabs
Neon Lights Bass Tabs
Primitive Bass Tabs
Fast As A Shark 3 Tabs
I Dont Wanna Be Like You Intro Tabs
Screaming For A Love-Bite Tabs
Stalingrad Tabs


Song lyrics



↑ Back to top | Tablatures and chords are parodies/interpretations of the original songs. You may use it for private study, scholarship, research or language learning purposes only
© 2014 AZChords.com Contact us | Privacy policy | DMCA | Add/correct tabs | Request tabs | Top 50 tabs