» » »

Accept, Bound To Fail Tabs (ver.1)

Artists:  A B C D E F G H I J K L M N O P Q R S T U V W X Y Z # 

Bound To Fail Tabs (ver.1)

Accept Tabs
Rating:
0/5 (0 votes)
Bound To Fail lessons Tabs too difficult? Try these video lessons and learn fast
                Accept-Bound to fail
********************
tapped by :Kevin Imbrechts

| ------------------------------------------------(G..2nd)--------------------|
| -----------------(b)--------------------------------------------------------|
| ----6-9-9-------9(10)9-7-9----------6--9--7--6-----7--6---------------------|
| 5--------------------------------7--------------7--------7--9---------------|
| ----------------------------------------------------------------------------|
| ----------------------------------------------------------------------------|
 
| ----------------------------------------------------------------------------|
|-----------------------------------------------------------------------------|
| ----------------------------------------------------------------------------|
| ------------------------2---------------------------------------------------|
| ------------------------0-------------------------7--5----------------------|
|-0-1-2--2--0-1-2--2--2-0-------0-1-2--2--0-1-2--2--5--3----------------------|

| ----------------------------------------------------------------------------|
| ----------------------------------------------------------------------------|
| ----------------------------------------------------------------------------|
| ------------------------2-------------------7----9--------------------------|
| ------------------------0-------------------5----7--------------------------|
| 0-1-2--2--0-1-2--2--2-0-------0-1-2--2--2-0---------------------------------|


-* accept still rulez....*-

-* have fun...*-
            
Submit corrections

comments powered by Disqus
↑ Back to top | Accept Tabs for Bound To Fail. Lyrics for acoustic guitar and electric guitar. Tablatures and chords are parodies/interpretations of the original songs. You may use it for private study, scholarship, research or language learning purposes only