>
 >
Beat The Bastards

Beat The Bastards Guitar Tabs

Accept - Beat The Bastards chords, tabs, tablatures, lyrics

Guitar lessons | Add/correct | Request | Top 50 tabs Artists:  A B C D E F G H I J K L M N O P Q R S T U V W X Y Z 0-9

Beat The Bastards Guitar Tabs – Accept

CD, Sheet music, Poster

Do you like Beat The Bastards? Share with your friends now
Tabs

Opening Riff 1:

----------------------------------------------------------------------------|
----------------------------------------------------------------------------|
----------------------------------------------------------------------------|
--5-2---------------7-2---------------5-2--------0---2p0--------------------|
--5-2----2-2-2-2----7-2----2-2-2-2----5-2----0h2---2-----2-0-2p0---------0--|
---------0-0-0-0-----------0-0-0-0-------------------------------3-0-3------|
  \ \    \ / \ /    \ \    \ / \ /    \ \    \   \ / \   / \ /   / \ \   \

Main Riff 1:

-------------------------------------------------------------------------|
-------------------------------------------------------------------------|
-------------------------------------------------------------------------|
--5-2---------------7-2---------------5-2---------------7-----8-----9----|
--5-2----2-2-2-2----7-2----2-2-2-2----5-2----2-2-2-2----7-----8-----9----|
---------0-0-0-0-----------0-0-0-0-----------0-0-0-0--------0-----0------|
  \ \    \ / \ /    \ \    \ / \ /    \ \    \ / \ /    \   / \   /  \

--------------------------------------------------------------------------|
--------------------------------------------------------------------------|
--------------------------------------------------------------------------|
--5-2---------------7-2---------------5-2---------------9-----8-----7-----|
--5-2----2-2-2-2----7-2----2-2-2-2----5-2----2-2-2-2----9-----8-----7-----|
---------0-0-0-0-----------0-0-0-0-----------0-0-0-0--------0-----0-------|
  \ \    \ / \ /    \ \    \ / \ /    \ \    \ / \ /    \   / \   / \

--------------------------------------------------------------------------|
--------------------------------------------------------------------------|
--------------------------------------------------------------------------|
--5-2---------------7-2---------------5-2---------------7-----8-----9-----|
--5-2----2-2-2-2----7-2----2-2-2-2----5-2----2-2-2-2----7-----8-----9-----|
---------0-0-0-0-----------0-0-0-0-----------0-0-0-0--------0-----0-------|
  \ \    \ / \ /    \ \    \ / \ /    \ \    \ / \ /    \   / \   / \

--------------------------------------------------------------------------|
--------------------------------------------------------------------------|
--------------------------------------------------------------------------|
--5-2---------------7-2-------------------0---2p0-------------------------|
--5-2----2-2-2-2----7-2----2-2-2-2----0h2---2-----2-0-2p0---------0-------|
---------0-0-0-0-----------0-0-0-0------------------------3-0-3-----------|
  \ \    \ / \ /    \ \    \ / \ /    \   \ / \   / \ /   / \ \   \

Main Riff 2.1:
2x

--------------------------------------------------------------------|
--------------------------------------------------------------------|
--------------------------------------------------------------------|
--------------------------------------------------------------------|
--5h7-------------10p7-------------5h7-------------7p5----5--7------|
------0-0-0-0-0-0------0-0-0-0-0-0-----0-0-0-0-0-0-----7------------|
  \   \ / \ / \ / \    \ / \ / \ / \   \ / \ / \ / \   \  \  \

--------------------------------------------------------------------|
--------------------------------------------------------------------|
--------------------------------------------------------------------|
---------------------------------------------------5---4---3--------|
--5h7-------------10p7-------------5h7-------------5---4---3--------|
------0-0-0-0-0-0------0-0-0-0-0-0-----0-0-0-0-0-0-3---2---1--------|
  \   \ / \ / \ / \    \ / \ / \ / \   \ / \ / \ / \   \   \

Main Riff 3:
2x

----------------------------------------------------|
----------------------------------------------------|
----------------------------------------------------|
--5--5--5--5--4--4--4--4--5--5--5--5--4------4------|
--5--5--5--5--4--4--4--4--5--5--5--5--4------4------|
--3--3--3--3--2--2--2--2--3--3--3--3--2------2------|
  \  \  \  \  \  \  \  \  \  \  \  \  \      \

----------------------------------------------------|
----------------------------------------------------|
----------------------------------------------------|
--5--5--5--5--5-----4--4--4--5--5--5--5--4------4---|
--5--5--5--5--5-----4--4--4--5--5--5--5--4------4---|
--3--3--3--3--3h5p3-2--2--2--3--3--3--3--2------2---|
  \  \  \  \  \     \  \  \  \  \  \  \  \      \

Main Riff 2.1
1x

Main Riff 2.2
----------------------------------------------------------------|
----------------------------------------------------------------|
----------------------------------------------------------------|
----------------------------------------------------------------|
--5h7-------------10p7-------------5h7-------------7p5----5--7--|
------0-0-0-0-0-0------0-0-0-0-0-0-----0-0-0-0-0-0-----7--------|
  \   \ / \ / \ / \    \ / \ / \ / \   \ / \ / \ / \   \  \  \

----------------------------------------------------------------|
----------------------------------------------------------------|
-----------------------------------7---6---5--------------------|
-----------------------------------7---6---5---5---4---3--------|
--5h7-------------10p7-------------5---4---3---5---4---3--------|
------0-0-0-0-0-0------0-0-0-0-0-0-------------3---2---1--------|
  \   \ / \ / \ / \    \ / \ / \ / \   \   \   \   \   \

Main Riff 3
4x

Verse Riff 1.1:

----------------------------------------------------|
----------------------------------------------------|
----------------------------------------------------|
--4----4----4--4----4----4----4--5--4---------------|
--2----2----4--5----5----2----2--2--2---------------|
----------------------------------------------------|
  \    \    \  \    \    \    \  \  \

----------------------------------------------------|
----------------------------------------------------|
----------------------------------------------------|
--2----2----2--2--2---------------------------------|
--0----0----0--5--0-------2--------1----------------|
--------------------5--3-----3--2-----2-------------|
  \    \    \  \  \ \  \  /  \  /  \  /


Verse Riff 1.2:
2x

----------------------------------------------------|
----------------------------------------------------|
----------------------------------------------------|
--4----4----4--4----4----4----4--5--4---------------|
--2----2----4--5----5----2----2--2--2---------------|
----------------------------------------------------|
  \    \    \  \    \    \    \  \  \

----------------------------------------------------|
----------------------------------------------------|
----------------------------------------------------|
--2----2----2----2---4-4---2-4----------------------|
--0----0----5----0---2-2---0-2----------------------|
----------------------------------------------------|
  \    \    \    \   \ \   \ \


Solo part 1

Solo comp - Main Riff 1
1x

The last part of the Main Riff 1 is a bit different

--------------------------------------------------------------------------|
--------------------------------------------------------------------------|
--------------------------------------------------------------------------|
--5-2---------------7-2-----5-2-----------0---2p0-------------------------|
--5-2----2-2-2-2----7-2-----5-2-------0h2---2-----2-0-2p0---------0-------|
---------0-0-0-0------------------------------------------3-0-3-----------|
  \ \    \ / \ /    \ \     \ \       \   \ / \   / \ /   / \ \   \


Solo 1:
                                                                       * A.H. with vibra
--15----15------18b20-18p17p15-------15-15----------------------------------------|
--15b17-15b17------------------18b20----18b10-------12~~12~~12~~12~~----3v--------|
----------------------------------------------------12~~12~~12~~12~~--------------|
----------------------------------------------------------------------------------|
----------------------------------------------------------------------------------|
----------------------------------------------------------------------------------|

Harmonized with Main Riff 1 ending
--------------------------------------------------------|
--------------------------------------------------------|
------7---9p7-------------------------------------------|
--7h9---9-----9-7-9p7---------7-------------------------|
----------------------10-7-10---------------------------|
--------------------------------------0v----------------|
  \   \ / \   / \ /   /  \ \  \       * Dive with vibra




Main Riff 2.1
2 x

Main Riff 3
4 x

Verse Riff 1.1
1 x
Verse Riff 1.2
1 x
Verse Riff 1.1
1 x
Verse Riff 1.2
1 x

Comp with Melodic part 1
2x

-----------------------------------------------------------------------------------|
-----------------------------------------------------------------------------------|
------------7----7----4----4----2----2--------------4----4--------------7----------|
--2----2----7----7----4----4----2----2----2----2----4----4----5----5----7----7-----|
--0----0----5----5----2----2----0----0----2----2----2----2----5----5----5----7-----|
--0----0----------------------------------0----0--------------3----3---------5-----|
  \    \    \    \    \    \    \    \    \    \    \    \    \    \    \    \

Melodic part 1

---------------------------------------------|
--------7------------------------------------|
--------7------------------------------------|
--9-9-9---9-7-7------------------------------|
----------------9-7h9---7h9-7-5---5-7b-9r7~--|
--------------------------------7------------|

-------------------------------------------------------------|
-------------------------------------------------------------|
-------7-9-9b11-9b11r9-7--------7-7-7-7-9-9b11-9b11~r9p7h9~--|
-9-9-9-------------------9-----------------------------------|
-------------------------------------------------------------|
-------------------------------------------------------------|

---------------------------------------------|
--------7------------------------------------|
--------7------------------------------------|
--9-9-9---9-7-7------------------------------|
----------------9-7h9---7h9-7-5---5-7b-9r7~--|
--------------------------------7------------|

-------------------------------------------------------------|
-------------------------10b12-------------------------------|
-------7-9-9b11-9b11r9-7--------7-7-7-7-9-9b11-9b11~r9p7h9~--|
-9-9-9-------------------------------------------------------|
-------------------------------------------------------------|
-------------------------------------------------------------|

Solo part 2

Comp with Solo 2.1

4x
-------------------------------------------------------|
-------------------------------------------------------|
-------------------------------------------------------|
-------------------------------------------------------|
--4---444444--4---444444--4---444444--4-2-0---2-0------|
--0h2-222222--5p2-222222--0h2-222222--------2-----2-0--|
  \   \/\/\/  \   \/\/\/  \   \/\/\/  \ / \ / \ / \ /


**************************
Solo 2.1 TO BE ADDED LATER
**************************


Comp with Solo 2.2

---------------------------------------------|
---------------------------------------------|
---------------------------------------------|
--6-6666666-6666666-6666666-666666-4----4----|
--6-6666666-6666666-6666666-666666-4----4----|
--4-4444444-4444444-4444444-444444-2----2----|
  \ \/\/\/\ \/\/\/\ \/\/\/\ \/\/\/ \    \

-------------------------------------------------------------------------|
-------------------------------------------------------------------------|
------------------------------------4------------------------------------|
--6-6666666-6666662-2222222-222222--4--6-6--4-4--4-4--6-6666666-666666---|
--6-6666666-6666662-2222222-222222--2--6-6--4-4--2-2--6-6666666-666666---|
--4-4444444-4444440-0000000-000000-----4-4--2-2--0-0--4-4444444-444444---|
  \ \/\/\/\ \/\/\/\ \/\/\/\ \/\/\/\ \  \ \  \ \  \ \  \ \/\/\/\ \/\/\/

---------------------------------------------|
---------------------------------------------|
---------------------------------------------|
--6-6666666-6666666-6666666-666666-4----4----|
--6-6666666-6666666-6666666-666666-4----4----|
--4-4444444-4444444-4444444-444444-2----2----|
  \ \/\/\/\ \/\/\/\ \/\/\/\ \/\/\/ \    \

---------------------------------------------------------|
---------------------------------------------------------|
------------------------------------4--------------------|
--6-6666666-6666662-2222222-222222--4--6-6--4-4--4-4--6--|
--6-6666666-6666662-2222222-222222--2--6-6--4-4--2-2--6--|
--4-4444444-4444440-0000000-000000-----4-4--2-2--0-0--4--|
  \ \/\/\/\ \/\/\/\ \/\/\/\ \/\/\/\ \  \ \  \ \  \ \  \

Not sure about this last part
------------------------------------------------------------|
------------------------------------------------------------|
--4-4------------4-4------------4-4--------8-8-8-8-8-8------|
--2-2--4-4--6-6--2-2--4-4--6-6--2-2--4-4---8-8-8-8-8-8------|
--2-2--2-2--6-6--2-2--2-2--6-6--2-2--2-2---6-6-6-6-6-6------|
-------2-2--4-4-------2-2--4-4-------2-2--------------------|
  \ \  \ \  \ \  \ \  \ \  \ \  \ \  \ \   \ \ \ \ \ \

Solo 2.2

-------------------------------------------------------|
-------------------------------------------------------|
------------6-8-8-8b9r8--8-6-6-6-9b11r9~8h9p8~---------|
--6-6-8-9-9--------------------------------------------|
-------------------------------------------------------|
-------------------------------------------------------|

-------------------------------------------------------|
-------------------------------------------------------|
------------6-8-8-8b9r8--8-6-4h6p4---------------------|
--6-6-8-9-9------------------------8-9-8h9p8-6-6--4h6--|
-------------------------------------------------------|
-------------------------------------------------------|

-------------------------------------------------------|
-------------------------------------------------------|
------------6-8-8-8b9r8--8-6-6-6-9b11r9-8h9p8p6h8~-----|
--6-6-8-9-9--------------------------------------------|
-------------------------------------------------------|
-------------------------------------------------------|

-------------------------------------------------------|
-------------------------------------------------------|
------------6-8-8-8b9r8--8-6-4h6p4---------------------|
--6-6-8-9-9------------------------8-9-8h9p8-6-6-6v4v6-|
-------------------------------------------------------|
-------------------------------------------------------|

----------------------------------------------------------------|
-------------------------------9-11-11b12r11-11-9-11-9h11p9-8-9-|
----------------------------------------------------------------|
--6-8-9-8h9p8-6-8-6h8p6-4-6-------------------------------------|
----------------------------------------------------------------|
----------------------------------------------------------------|

---9-11-11b12r11-11-9-11-9h11p9----11---------11-------11-------|
--------------------------------12------14b16----14b16----14b16-|
----------------------------------------------------------------|
----------------------------------------------------------------|
----------------------------------------------------------------|
----------------------------------------------------------------|
The rest is improvised, Hoffmann is too fast to hear it clearly :)
11-12-14-12h14p12p11-9-11-9-------------------------------------|
----------------------------12-11h12p11-9-----------------------|
------------------------------------------11-9h11p9-8-----------|
------------------------------------------------------11-9h11p9-|
----------------------------------------------------------------|
----------------------------------------------------------------|

----------------------------------------------------------------|
----------------------------------------------------------------|
----------------------------------------------------------------|
-8-9-8h9p8------------------------------------------------------|
-----------11-9h11p9-8-6----------------------------------------|
-------------------------9/11~~~--------------------------------|

Verse Riff 1.1
1x
Verse Riff 1.2
1x
Verse Riff 1.1
1x
Verse Riff 1.2
1x

End Riff

-------------------------------------------------------------------------|
-------------------------------------------------------------------------|
-----------------------------------------------------------------4-------|
--4-4---2-4------4-4---2-4-----------0---2p0---------------------4-------|
--2-2---0-2------2-2---0-2-------0h2---2-----2-0-2p0---------0---2-------|
-----------------------------------------------------3-0-3---------------|
  \ \   \ \      \ \   \ \       \   \ / \   / \ /   / \ \   \   \





Comments


Popular Accept tabs & chords
Burning Bass Tabs
Fast As A Shark 1 Bass Tabs
Hellhammer Bass Tabs
Princess Of The Dawn Bass Tabs
Amamos La Vida Tabs
Balls To The Wall 1 Tabs
Losers And Winners Tabs
Metal Heart 1 Tabs
Screaming For A Love-Bite Tabs
Teutonic Terror Tabs


Song lyrics



↑ Back to top | Tablatures and chords are parodies/interpretations of the original songs. You may use it for private study, scholarship, research or language learning purposes only
© 2014 AZChords.com Contact us | Privacy policy | DMCA | Add/correct tabs | Request tabs | Top 50 tabs