>
 >
Waiter Strains

Waiter Strains Guitar Tabs

A.C.Acoustics - Waiter Strains chords, tabs, tablatures, lyrics

Guitar lessons | Add/correct | Request | Top 50 tabs Artists:  A B C D E F G H I J K L M N O P Q R S T U V W X Y Z 0-9

Waiter Strains Guitar Tabs – A.C.Acoustics

CD, Sheet music, Poster

Do you like Waiter Strains? Share with your friends now
Tabs
A song from A.C Acoustics called WAITER STRAINS.
In this songs ther are violins in with the background of the guitar.
I tabbed even the sound of the violins (since the guitar under is the same)
Enjoy


INTRO
|----------------------------|
|----------------------------|
|---9---9-----9-----9------6-|
|-----7---7-----7--------4---|
|-0---------0-----0----5-----|
|----------------------------|


|---------------------------------|
|---------------------------------|
|------9---9-----9S11-9---9-----9-|
|--------7---7----------6---6h7---|
|----0---------0------------------|
|---------------------------------|


|----------------------------------------------|
|---9---9b----7-------9---9b-------------------|
|---------------6--------------12-11-9---------|
|-7---7-------------7---7--------------9-11-11-| (Repeat Intro, listen to song)
|----------------------------------------------|
|----------------------------------------------|


|-------------------------------------------------|
|-------------------------------------------------|
|-------------------------------------------------|
|-16-16-16-16-14-14-14-14-18-18-18-18-19-19-21-21-| (Violins sound)(01:28)
|-------------------------------------------------|
|-------------------------------------------------|


|---------------------------------|
|---------------------------------|
|---------------------------------|
|--------14s16s14--------14s16s14-|
|-0--0-0----------0--0-0----------|
|---------------------------------|


|-----------------------------|
|-----------------------------|
|-----------------------------|
|-19---18-19---18-19---18--14-| (Violins sound)(01:56)
|-----------------------------|
|-----------------------------|


|---------------------------------------|
|---9---9b11-7-----9---9b11-8-7-5-------|
|--------------6------------------4-6-6-|
|-7---7----------7---7------------------|
|---------------------------------------|
|---------------------------------------|

|------------------|
|------------------|
|------------------|
|------------------| (low violins sound)(03:54)
|-12-11-12-11-7----|
|------------------|

|------------------------------|
|------------------------------|
|------------------------------|
|-11-11-11h12p11-11-11-9-9-7-7-| (04:10)
|------------------------------|
|------------------------------|


|--------------------------------|
|--------------------------------|
|--------------------------------|
|-11-11-11h12p11-11-11-9-9-11-11-|
|--------------------------------|
|--------------------------------|

|----------------------------|
|----------------------------|
|-13-11----------------------|
|-------11-------------------| (05:14)
|----------14-14-14p12--12-12|
|----------------------------|


|----------------------------|
|----------------------------|
|-13-11-16-------------------|
|----------------------------|
|----------14-16-16s17s16-16-|
|----------------------------|

|---------------------------------------------------------------|
|---------------------------------------------------------------|
|-14----13-14----13-14----13-14----13-14---13-14----13-14----13-|
|---------------------------------------------------------------| (05:55)
|---------------------------------------------------------------|
|---------------------------------------------------------------|


|----------------------------------|
|----------------------------------|
|-12-12-12-12-11-11----------------|
|----------------11-11-11h12p11-11-| (07:00)
|----------------------------------|
|----------------------------------|


Tablature Legend
----------------
 h   - hammer-on
 p   - pull-off
 b   - bend
 pb  - pre-bend
 r   - bend release (if no number after the r, then release immediately)
 /\  - slide into or out of (from/to "nowhere")
 s   - legato slide
 S   - shift slide
<n>  - natural harmonic
[n]  - artificial harmonic
n(n) - tapped harmonic
 ~   - vibrato
 tr  - trill
 T   - tap
 TP  - trem. picking
 PM  - palm muting
\n/  - tremolo bar dip; n = amount to dip
 \n  - tremolo bar down
 n/  - tremolo bar up
/n\  - tremolo bar inverted dip
 =   - hold bend; also acts as connecting device for hammers/pulls
 <>  - volume swell (louder/softer)
 x   - on rhythm slash represents muted slash
 o   - on rhythm slash represents single note slash


***************************************************************************************
***************************************************************************************





Comments


Popular A.C.Acoustics tabs & chords
Continuity Freak Tabs
Dry Salvage Tabs
Ex Quartermaster Tabs
Stunt Girl Tabs
Waiter Strins Tabs


Song lyrics



↑ Back to top | Tablatures and chords are parodies/interpretations of the original songs. You may use it for private study, scholarship, research or language learning purposes only
© 2014 AZChords.com Contact us | Privacy policy | DMCA | Add/correct tabs | Request tabs | Top 50 tabs