» » »

Were Coming Back Tabs (ver.1)

Artists:  A B C D E F G H I J K L M N O P Q R S T U V W X Y Z # 

Were Coming Back Tabs (ver.1)

A.C.A.B
Rating:
0/5 (0 votes)

Hard to play? Try these video lessons and learn fast.
                Band		:A.C.A.B.
Song		:We're Coming Back 
Tuning		:Standard (E,A,D,G,B,E)

(s = slide)

Song's Order:
	
	-Intro
	-Verse
	-Chorus1
	-Verse
	-Chorus2
	-Solo
	-Chorus3

Intro	

E|----------------------------------------------------------------|
B|----------------------------------------------------------------|
G|--------------------------------5---5-5-5-5-5-5-5-5-5-5-5-5-5-5-|
D|5---5-5-5-5-5-5-5-5-5-5-5-5-5-5-5---5-5-5-5-5-5-5-5-5-5-5-5-5-5-|
A|5---5-5-5-5-5-5-5-5-5-5-5-5-5-5-3---3-3-3-3-3-3-3-3-3-3-3-3-3-3-|
E|3---3-3-3-3-3-3-3-3-3-3-3-3-3-3---------------------------------|
  1 + 2 + 3 + 4 + 1 + 2 + 3 + 4 + 1 + 2 + 3 + 4 + 1 + 2 + 3 + 4 + 

E|----------------------------------------------------------------|
B|----------------------------------------------------------------|
G|7---7-7-7-7-7-7-7-7-7-7-7-7-7-7-------------------7-7-7-7-7-7-7-|
D|7---7-7-7-7-7-7-7-7-7-7-7-7-7-7-5---5-5-5-5-5-5-5-7-7-7-7-7-7-7-|
A|5---5-5-5-5-5-5-5-5-5-5-5-5-5-5-5---5-5-5-5-5-5-5-5-5-5-5-5-5-5-|
E|--------------------------------3---3-3-3-3-3-3-3---------------|
  1 + 2 + 3 + 4 + 1 + 2 + 3 + 4 + 1 + 2 + 3 + 4 + 1 + 2 + 3 + 4 +


Verse

E|----------------------------------------------------------------|
B|----------------------------------------------------------------|
G|--------------------------------5---5-5-5-5-5-5-5-5-5-5-5-5-5-5-|
D|5---5-5-5-5-5-5-5-5-5-5-5-5-5-5-5---5-5-5-5-5-5-5-5-5-5-5-5-5-5-|
A|5---5-5-5-5-5-5-5-5-5-5-5-5-5-5-3---3-3-3-3-3-3-3-3-3-3-3-3-3-3-|
E|3---3-3-3-3-3-3-3-3-3-3-3-3-3-3---------------------------------|
  1 + 2 + 3 + 4 + 1 + 2 + 3 + 4 + 1 + 2 + 3 + 4 + 1 + 2 + 3 + 4 + 

E|----------------------------------------------------------------|
B|----------------------------------------------------------------|
G|7---7-7-7-7-7-7-7-7-7-7-7-7-7-7-------------------7-7-7-7-7-7-7-|
D|7---7-7-7-7-7-7-7-7-7-7-7-7-7-7-5---5-5-5-5-5-5-5-7-7-7-7-7-7-7-|
A|5---5-5-5-5-5-5-5-5-5-5-5-5-5-5-5---5-5-5-5-5-5-5-5-5-5-5-5-5-5-|
E|--------------------------------3---3-3-3-3-3-3-3---------------|
  1 + 2 + 3 + 4 + 1 + 2 + 3 + 4 + 1 + 2 + 3 + 4 + 1 + 2 + 3 + 4 +

E|----------------------------------------------------------------|
B|----------------------------------------------------------------|
G|--------------------------------5---5-5-5-5-5-5-5-5-5-5-5-5-5-5-|
D|5---5-5-5-5-5-5-5-5-5-5-5-5-5-5-5---5-5-5-5-5-5-5-5-5-5-5-5-5-5-|
A|5---5-5-5-5-5-5-5-5-5-5-5-5-5-5-3---3-3-3-3-3-3-3-3-3-3-3-3-3-3-|
E|3---3-3-3-3-3-3-3-3-3-3-3-3-3-3---------------------------------|
  1 + 2 + 3 + 4 + 1 + 2 + 3 + 4 + 1 + 2 + 3 + 4 + 1 + 2 + 3 + 4 + 

E|----------------------------------------------------------------|
B|----------------------------------------------------------------|
G|7---7-7-7-7-7-7-7-7-7-7-7-7-7-7---------------------------------|
D|7---7-7-7-7-7-7-7-7-7-7-7-7-7-7-5---5-5-5-5-5-5-5-5-5-5-5-5-5-5-|
A|5---5-5-5-5-5-5-5-5-5-5-5-5-5-5-5---5-5-5-5-5-5-5-5-5-5-5-5-5-5-|
E|--------------------------------3---3-3-3-3-3-3-3-3-3-3-3-3-3-3-|
  1 + 2 + 3 + 4 + 1 + 2 + 3 + 4 + 1 + 2 + 3 + 4 + 1 + 2 + 3 + 4 +


Chorus1

E|----------------------------------------------------------------|
B|----------------------------------------------------------------|
G|5---5-5-5-5-5-5-7---7-7-7-7-7-7-----------------------9---9-7---| 
D|5---5-5-5-5-5-5-7---7-7-7-7-7-7-5-----5-4-----4-2---2-9---9-7---|
A|3---3-3-3-3-3-3-5---5-5-5-5-5-5-5-----5-4-----4-2---2-7---7-5---|
E|--------------------------------3-----3-2-----2-0---0-----------|
  1 + 2 + 3 + 4 + 1 + 2 + 3 + 4 + 1 + 2 + 3 + 4 + 1 + 2 + 3 + 4 + 

E|----------------------------------------------------------------|
B|----------------------------------------------------------------|
G|5---5-5-5-5-5-5-7---7-7-7-7-7-7-7s9-9-9-9-9-9-9-9-9-9-9-9-9-7---|
D|5---5-5-5-5-5-5-7---7-7-7-7-7-7-7s9-9-9-9-9-9-9-9-9-9-9-9-9-7---|
A|3---3-3-3-3-3-3-5---5-5-5-5-5-5-5s7-7-7-7-7-7-7-7-7-7-7-7-7-5---|
E|----------------------------------------------------------------|
  1 + 2 + 3 + 4 + 1 + 2 + 3 + 4 + 1 + 2 + 3 + 4 + 1 + 2 + 3 + 4 +

E|----------------------------------------------------------------|
B|----------------------------------------------------------------|
G|5---5-5-5-5-5-5-7---7-7-7-7-7-7-----------------------9---9-7---| 
D|5---5-5-5-5-5-5-7---7-7-7-7-7-7-5-----5-4-----4-2---2-9---9-7---|
A|3---3-3-3-3-3-3-5---5-5-5-5-5-5-5-----5-4-----4-2---2-7---7-5---|
E|--------------------------------3-----3-2-----2-0---0-----------|
  1 + 2 + 3 + 4 + 1 + 2 + 3 + 4 + 1 + 2 + 3 + 4 + 1 + 2 + 3 + 4 + 

E|----------------------------------------------------------------|
B|----------------------------------------------------------------|
G|5---5-5-5-5-5-5-7---7-7-7-7-7-7-------------------7-7-7-7-7-7-7-|
D|5---5-5-5-5-5-5-7---7-7-7-7-7-7-5---5-5-5-5-5-5-5-7-7-7-7-7-7-7-|
A|3---3-3-3-3-3-3-5---5-5-5-5-5-5-5---5-5-5-5-5-5-5-5-5-5-5-5-5-5-|
E|--------------------------------3---3-3-3-3-3-3-3---------------|
  1 + 2 + 3 + 4 + 1 + 2 + 3 + 4 + 1 + 2 + 3 + 4 + 1 + 2 + 3 + 4 +

Chorus2

E|----------------------------------------------------------------|
B|----------------------------------------------------------------|
G|5---5-5-5-5-5-5-7---7-7-7-7-7-7-----------------------9---9-7---| 
D|5---5-5-5-5-5-5-7---7-7-7-7-7-7-5-----5-4-----4-2---2-9---9-7---|
A|3---3-3-3-3-3-3-5---5-5-5-5-5-5-5-----5-4-----4-2---2-7---7-5---|
E|--------------------------------3-----3-2-----2-0---0-----------|
  1 + 2 + 3 + 4 + 1 + 2 + 3 + 4 + 1 + 2 + 3 + 4 + 1 + 2 + 3 + 4 + 

E|----------------------------------------------------------------|
B|----------------------------------------------------------------|
G|5---5-5-5-5-5-5-7---7-7-7-7-7-7-7s9-9-9-9-9-9-9-9-9-9-9-9-9-7---|
D|5---5-5-5-5-5-5-7---7-7-7-7-7-7-7s9-9-9-9-9-9-9-9-9-9-9-9-9-7---|
A|3---3-3-3-3-3-3-5---5-5-5-5-5-5-5s7-7-7-7-7-7-7-7-7-7-7-7-7-5---|
E|----------------------------------------------------------------|
  1 + 2 + 3 + 4 + 1 + 2 + 3 + 4 + 1 + 2 + 3 + 4 + 1 + 2 + 3 + 4 +

E|----------------------------------------------------------------|
B|----------------------------------------------------------------|
G|5---5-5-5-5-5-5-7---7-7-7-7-7-7-----------------------9---9-7---| 
D|5---5-5-5-5-5-5-7---7-7-7-7-7-7-5-----5-4-----4-2---2-9---9-7---|
A|3---3-3-3-3-3-3-5---5-5-5-5-5-5-5-----5-4-----4-2---2-7---7-5---|
E|--------------------------------3-----3-2-----2-0---0-----------|
  1 + 2 + 3 + 4 + 1 + 2 + 3 + 4 + 1 + 2 + 3 + 4 + 1 + 2 + 3 + 4 + 

E|----------------------------------------------------------------|
B|-----------------------------------------------------------10s12|
G|5---5-5-5-5-5-5-7---7-7-7-7-7-7-------------------7-7-7-7-7-----|
D|5---5-5-5-5-5-5-7---7-7-7-7-7-7-5---5-5-5-5-5-5-5-7-7-7-7-7-----|
A|3---3-3-3-3-3-3-5---5-5-5-5-5-5-5---5-5-5-5-5-5-5-5-5-5-5-5-----|
E|--------------------------------3---3-3-3-3-3-3-3---------------|
  1 + 2 + 3 + 4 + 1 + 2 + 3 + 4 + 1 + 2 + 3 + 4 + 1 + 2 + 3 + 4 +

Chorus3

E|----------------------------------------------------------------|
B|----------------------------------------------------------------|
G|5---5-5-5-5-5-5-7---7-7-7-7-7-7-----------------------9---9-7---| 
D|5---5-5-5-5-5-5-7---7-7-7-7-7-7-5-----5-4-----4-2---2-9---9-7---|
A|3---3-3-3-3-3-3-5---5-5-5-5-5-5-5-----5-4-----4-2---2-7---7-5---|
E|--------------------------------3-----3-2-----2-0---0-----------|
  1 + 2 + 3 + 4 + 1 + 2 + 3 + 4 + 1 + 2 + 3 + 4 + 1 + 2 + 3 + 4 + 

E|----------------------------------------------------------------|
B|----------------------------------------------------------------|
G|5---5-5-5-5-5-5-7---7-7-7-7-7-7-7s9-9-9-9-9-9-9-9-9-9-9-9-9-7---|
D|5---5-5-5-5-5-5-7---7-7-7-7-7-7-7s9-9-9-9-9-9-9-9-9-9-9-9-9-7---|
A|3---3-3-3-3-3-3-5---5-5-5-5-5-5-5s7-7-7-7-7-7-7-7-7-7-7-7-7-5---|
E|----------------------------------------------------------------|
  1 + 2 + 3 + 4 + 1 + 2 + 3 + 4 + 1 + 2 + 3 + 4 + 1 + 2 + 3 + 4 +

E|----------------------------------------------------------------|
B|----------------------------------------------------------------|
G|5---5-5-5-5-5-5-7---7-7-7-7-7-7-----------------------9---9-7---| 
D|5---5-5-5-5-5-5-7---7-7-7-7-7-7-5-----5-4-----4-2---2-9---9-7---|
A|3---3-3-3-3-3-3-5---5-5-5-5-5-5-5-----5-4-----4-2---2-7---7-5---|
E|--------------------------------3-----3-2-----2-0---0-----------|
  1 + 2 + 3 + 4 + 1 + 2 + 3 + 4 + 1 + 2 + 3 + 4 + 1 + 2 + 3 + 4 + 

E|----------------------------------------------------------------|
B|----------------------------------------------------------------|
G|5---5-5-5-5-5-5-7---7-7-7-7-7-7---------------------------------|
D|5---5-5-5-5-5-5-7---7-7-7-7-7-7-5---5-5-5-5-5-5-5-5-5-5-5-5-5-5-|
A|3---3-3-3-3-3-3-5---5-5-5-5-5-5-5---5-5-5-5-5-5-5-5-5-5-5-5-5-5-|
E|--------------------------------3---3-3-3-3-3-3-3-3-3-3-3-3-3-3-|
  1 + 2 + 3 + 4 + 1 + 2 + 3 + 4 + 1 + 2 + 3 + 4 + 1 + 2 + 3 + 4 +

E|----------------------------------------------------------------|
B|----------------------------------------------------------------|
G|5---5-5-5-5-5-5-7---7-7-7-7-7-7-----------------------9---9-7---| 
D|5---5-5-5-5-5-5-7---7-7-7-7-7-7-5-----5-4-----4-2---2-9---9-7---|
A|3---3-3-3-3-3-3-5---5-5-5-5-5-5-5-----5-4-----4-2---2-7---7-5---|
E|--------------------------------3-----3-2-----2-0---0-----------|
  1 + 2 + 3 + 4 + 1 + 2 + 3 + 4 + 1 + 2 + 3 + 4 + 1 + 2 + 3 + 4 + 

E|----------------------------------------------------------------|
B|----------------------------------------------------------------|
G|5---5-5-5-5-5-5-7---7-7-7-7-7-7-7s9-9-9-9-9-9-9-9-9-9-9-9-9-7---|
D|5---5-5-5-5-5-5-7---7-7-7-7-7-7-7s9-9-9-9-9-9-9-9-9-9-9-9-9-7---|
A|3---3-3-3-3-3-3-5---5-5-5-5-5-5-5s7-7-7-7-7-7-7-7-7-7-7-7-7-5---|
E|----------------------------------------------------------------|
  1 + 2 + 3 + 4 + 1 + 2 + 3 + 4 + 1 + 2 + 3 + 4 + 1 + 2 + 3 + 4 +

E|----------------------------------------------------------------|
B|----------------------------------------------------------------|
G|5---5-5-5-5-5-5-7---7-7-7-7-7-7-----------------------9---9-7---| 
D|5---5-5-5-5-5-5-7---7-7-7-7-7-7-5-----5-4-----4-2---2-9---9-7---|
A|3---3-3-3-3-3-3-5---5-5-5-5-5-5-5-----5-4-----4-2---2-7---7-5---|
E|--------------------------------3-----3-2-----2-0---0-----------|
  1 + 2 + 3 + 4 + 1 + 2 + 3 + 4 + 1 + 2 + 3 + 4 + 1 + 2 + 3 + 4 + 

E|----------------------------------------------------------------|
B|----------------------------------------------------------------|
G|5---5-5-5-5-5-5-7---7-7-7-7-7-7---------------------------------|
D|5---5-5-5-5-5-5-7---7-7-7-7-7-7-5-------------------------------|
A|3---3-3-3-3-3-3-5---5-5-5-5-5-5-5-------------------------------|
E|--------------------------------3-------------------------------|
  1 + 2 + 3 + 4 + 1 + 2 + 3 + 4 + 1 + 2 + 3 + 4 + 1 + 2 + 3 + 4 + 


Solo (Not Done Yet)
            
Hard to play? Try these video lessons and learn fast. | Correct




comments powered by Disqus
↑ Back to top | Tablatures and chords are parodies/interpretations of the original songs. You may use it for private study, scholarship, research or language learning purposes only