» » »

We Are A.C.A.B Tabs (ver.2)

Artists:  A B C D E F G H I J K L M N O P Q R S T U V W X Y Z # 

We Are A.C.A.B Tabs (ver.2)

A.C.A.B
Rating:
0/5 (0 votes)

Hard to play? Try these video lessons and learn fast.
                Intro 4x(1st Guitar)
e||-----------------------------------------------------------------------||
G||-----------------------------------------------------------------------||
B||-----------------------------------------------------------------------||
D||----------5---------3--2------------3--2--5--3--2---7--5--4--5--7------||
A||---8---7-----8--7---------3--5--3--------------------------------------||
E||-55--55-55-55-55--11-11-11-11-11--33-33-33-33-33--55-55-55-55-55-------||
    **  ** ** ** **  ** ** ** ** **  ** ** ** ** **  ** ** ** ** **
Intro(2nd Guitar)
e||-----------------------------------------------------------------------||
G||-----------------------------------------------------------------------||
B||-----------------------------------------------------------------------||
D||--777777777777777--33333333333333--55555555555555---777777777777777----||
A||--777777777777777--33333333333333--555555555555555--777777777777777----||
E||--555555555555555--11111111111111--333333333333333--555555555555555----||


Pre-Chorus

e||---------------------------------------------------||
G||---------------------------------------------------||
B||------------------444444444444444--999999999999999-||
D||-333333333333333--444444444444444--999999999999999-||
A||-333333333333333--222222222222222--777777777777777-||
E||-111111111111111-----------------------------------||
                      **************
Chorus 2x
e||-----------------------------------------------------------------------||
G||-----------------------------------------------------------------------||
B||-----------------------------------------------------------------------||
D||--777777777777777--33333333333333--55555555555555---777777777777777----||
A||--777777777777777--33333333333333--555555555555555--777777777777777----||
E||--555555555555555--11111111111111--333333333333333--555555555555555----||

Intro 2x
(1st Guitar)
e||-----------------------------------------------------------------------||
G||-----------------------------------------------------------------------||
B||-----------------------------------------------------------------------||
D||----------5---------3--2------------3--2--5--3--2---7--5--4--5--7------||
A||---8---7-----8--7---------3--5--3--------------------------------------||
E||-55--55-55-55-55--11-11-11-11-11--33-33-33-33-33--55-55-55-55-55-------||
    **  ** ** ** **  ** ** ** ** **  ** ** ** ** **  ** ** ** ** **
Intro(2nd Guitar)
e||-----------------------------------------------------------------------||
G||-----------------------------------------------------------------------||
B||-----------------------------------------------------------------------||
D||--777777777777777--33333333333333--55555555555555---777777777777777----||
A||--777777777777777--33333333333333--555555555555555--777777777777777----||
E||--555555555555555--11111111111111--333333333333333--555555555555555----||

Verse 2x
e||-----------------------------------------------------------------------||
G||-----------------------------------------------------------------------||
B||-----------------------------------------------------------------------||
D||--777777777777777--33333333333333--55555555555555---777777777777777----||
A||--777777777777777--33333333333333--555555555555555--777777777777777----||
E||--555555555555555--11111111111111--333333333333333--555555555555555----||


Pre-Chorus

e||---------------------------------------------------||
G||---------------------------------------------------||
B||------------------444444444444444--999999999999999-||
D||-333333333333333--444444444444444--999999999999999-||
A||-333333333333333--222222222222222--777777777777777-||
E||-111111111111111-----------------------------------||
                      **************
Chorus 2x
e||-----------------------------------------------------------------------||
G||-----------------------------------------------------------------------||
B||-----------------------------------------------------------------------||
D||--777777777777777--33333333333333--55555555555555---777777777777777----||
A||--777777777777777--33333333333333--555555555555555--777777777777777----||
E||--555555555555555--11111111111111--333333333333333--555555555555555----||

Solo

e||-----------------------------------------------||
B||-----------------------------------------------||
G||-----------------5-------------5-7-5-7-9-7-5---||
D||---------5---5-7---7-5-7---5-7---------------7-||
A||-------7---7-----------------------------------||
E||-3-5-7-----------------------------------------||

e||-----------------------------------------------||
B||---------8---8---8-----------------------------||
G||---5-7-9---9---9---7~-5-9-7-5------5-7-9-7-5---||
D||-7----------------------------7--7-----------7-||
A||-----------------------------------------------||
E||-----------------------------------------------||

e||-----------------------------------||
B||-----------------------------------||
G||-----5-------5---5-7-9-9-9-5-------||
D||-5-7---7-5-7---7-------------7-5-7-||
A||-----------------------------------||
E||-----------------------------------||

e||----------------8-----------------8------8------8------8-10-||
B||---------5-8-10---10-8-10-10-8-10---10-8---10-8---10-8------||
G||-----5-7----------------------------------------------------||
D||-5-7--------------------------------------------------------||
A||------------------------------------------------------------||
E||------------------------------------------------------------||


Pre-Chorus

e||---------------------------------------------------||
G||---------------------------------------------------||
B||------------------444444444444444--999999999999999-||
D||-333333333333333--444444444444444--999999999999999-||
A||-333333333333333--222222222222222--777777777777777-||
E||-111111111111111-----------------------------------||
                       *************
Chorus 2x
e||-----------------------------------------------------------------------||
G||-----------------------------------------------------------------------||
B||-----------------------------------------------------------------------||
D||--777777777777777--33333333333333--55555555555555---777777777777777----||
A||--777777777777777--33333333333333--555555555555555--777777777777777----||
E||--555555555555555--11111111111111--333333333333333--555555555555555----||

-EnD-
            
Hard to play? Try these video lessons and learn fast. | Correct




comments powered by Disqus
↑ Back to top | Tablatures and chords are parodies/interpretations of the original songs. You may use it for private study, scholarship, research or language learning purposes only