>
 >
Racial Hatred 2

Racial Hatred 2 Guitar Tabs

A.C.A.B - Racial Hatred 2 chords, tabs, tablatures, lyrics

Guitar lessons | Add/correct | Request | Top 50 tabs Artists:  A B C D E F G H I J K L M N O P Q R S T U V W X Y Z 0-9

Racial Hatred 2 Guitar Tabs – A.C.A.B

CD, Sheet music, Poster

Do you like Racial Hatred 2? Share with your friends now
Bass TabsTabsTabs v2Tabs v3
-------------------------------------------------------------------------------
                             A.C.A.B. - Racial Hatred 2
-------------------------------------------------------------------------------

Tuning:

Intro x 2
e|-----------------------------------------------------------------------------|
B|--------------------------------------------------6---5----------------------|
G|--------------------------------------------------5---4----------------------|
D|--------------------------------------------------3---2----------------------|
A|-00-3-00-5-0-5/3-0-5--3--00-3-00-5-0-5/3-0-5--3---3---2----------------------|
E|--------------------------------------------------1---0----------------------|
   **   **                 **   **                  ++  ++
e|---------------------------------------------------------------------------|
B|---------------------------------------------------------------------------|
G|---------------------------------------------------------------------------|
D|-------------------555-----------------------------------------------------|
A|-00-3-00-5-0-5/3-3-555-----------------------------------------------------|
E|-------------------333-----------------------------------------------------|
   **   **

Verse x 2
e|---------------------------------------------------------------------------|
B|--------------------------------------6--5---------------------------------|
G|---------------------------------------5--4--------------------------------|
D|-777777777777-555-7-777777777777-555-3--2----------------------------------|
A|-777777777777-555-7-777777777777-555-3--2----------------------------------|
E|-555555555555-333-5-555555555555-333-1--0----------------------------------|
   ************       ************      ++ ++
e|---------------------------------------------------------------------------|
B|---------------------------------------------------------------------------|
G|---------------------------------------------------------------------------|
D|-777777777777-555----------------------------------------------------------|
A|-777777777777-555----------------------------------------------------------|
E|-555555555555-333----------------------------------------------------------|
   ************

Pre-Chorus
e|---------------------------------------------------------------------------|
B|---------------------------------------------------------------------------|
G|---------------------------------------------------------------------------|
D|-33333333-55555555-77-7-77-7-55-5-55-5-33333333-555-22222222---------------|
A|-33333333-55555555-77-7-77-7-55-5-55-5-33333333-555-22222222---------------|
E|-11111111-33333333-55-5-55-5-33-3-33-3-11111111-333-00000000---------------|
                     **   **   **   **   ********     ********
e|---------------------------------------------------------------------------|
B|---------------------------------------------------------------------------|
G|-9-9-9-9-------------------------------------------------------------------|
D|-9-9-9-9-------------------------------------------------------------------|
A|-7-7-7-7-------------------------------------------------------------------|
E|---------------------------------------------------------------------------|

Chorus x 2
e|---------------------------------------------------------------------------|
B|---------------------------------------------------------------------------|
G|-5555555555555555----------------------------------------------------------|
D|-5555555555555555-5555555555555555-3333333333333333-5555555555555555-------|
A|-3333333333333333-5555555555555555-3333333333333333-5555555555555555-------|
E|------------------3333333333333333-1111111111111111-3333333333333333-------|


Then there's the solo, but I don't know sorry


Pre-Chorus
e|---------------------------------------------------------------------------|
B|---------------------------------------------------------------------------|
G|---------------------------------------------------------------------------|
D|-33333333-55555555-77-7-77-7-55-5-55-5-33333333-555-22222222---------------|
A|-33333333-55555555-77-7-77-7-55-5-55-5-33333333-555-22222222---------------|
E|-11111111-33333333-55-5-55-5-33-3-33-3-11111111-333-00000000---------------|
                     **   **   **   **   ********     ********
e|---------------------------------------------------------------------------|
B|---------------------------------------------------------------------------|
G|-9-9-9-9-------------------------------------------------------------------|
D|-9-9-9-9-------------------------------------------------------------------|
A|-7-7-7-7-------------------------------------------------------------------|
E|---------------------------------------------------------------------------|


Chorus x 4
e|---------------------------------------------------------------------------|
B|---------------------------------------------------------------------------|
G|-5555555555555555----------------------------------------------------------|
D|-5555555555555555-5555555555555555-3333333333333333-5555555555555555-------|
A|-3333333333333333-5555555555555555-3333333333333333-5555555555555555-------|
E|------------------3333333333333333-1111111111111111-3333333333333333-------|

Outro
e|---------------------------------------------------------------------------|
B|---------------------------------------------------------------------------|
G|---------------------------------------------------------------------------|
D|-------------------555-7---------------------------------------------------|
A|-00-3-00-5-0-5/3-3-555-7---------------------------------------------------|
E|-------------------333-5---------------------------------------------------|
   **   **               Let It Ring


| /  slide up
| \  slide down
| h  hammer-on
| p  pull-off
| ~  vibrato
| +  harmonic
| x  Mute note
===============================================================================





Comments


Popular A.C.A.B tabs & chords
Where Have All The Bootboys Gone? Bass Tabs
Bangun Chords
Bersama Semula 2 Tabs
Bunga Padang Pasir Intro 1 Tabs
Racial Hatred Tabs
Skinhead For Life Tabs
Where Have All The Bootboys Gone? 2 Tabs
Genggam Ukulele
Streets Of Uptown Ukulele
Where Have All The Boot Boys Gone Ukulele


Song lyrics



↑ Back to top | Tablatures and chords are parodies/interpretations of the original songs. You may use it for private study, scholarship, research or language learning purposes only
© 2014 AZChords.com Contact us | Privacy policy | DMCA | Add/correct tabs | Request tabs | Top 50 tabs