» » »

Musibah Tabs (ver.1)

Artists:  A B C D E F G H I J K L M N O P Q R S T U V W X Y Z # 

Musibah Tabs (ver.1)

A.C.A.B
Rating:
0/5 (0 votes)

Tabs too difficult? Try these video lessons and learn fast.
                Musibah by A.C.A.B
Performed on Underground Tribute To Sweet Charity

Tuning standard

pm..... = Palm mute
/        = slide up
\        = slide down
~~~~~~   = vibrato
h        = hammer

1.Intro
2.Riff A
3.Riff B
4.Riff C
5.Riff B
6.Riff A
7.Riff B
8.Riff D
9.Verse 1 (2X)
10.Verse 2
11.Riff B
12.Riff A
13.Riff B
14.Riff C
15.Riff B
16.Riff A
17.Riff B
18.Riff D
19.Verse 1
20.Verse 2
21.Riff E
22.Verse 3 (2X)
23.Riff F
24.Riff B
25.Riff A
26.Riff B
27.Riff C
28.Riff B
29.Riff A
30.Riff B
31.Riff D
32.Verse 1
33.Verse 4
34.Verse 5
35.End


Intro
e|-------------------------------------------------------------------------|
B|-------------------------------------------------------------------------|
G|-------------------------------------------------------------------------|
D|--9--9\5-5/7-7/9--9/12-12\11-11\9--9\5-5/7-7/9--9/12-12\11-9-9\7/9\------|
A|--7--7\3-3/5-5/7--7/10-10\9---9\7--7\3-3/5-5/7--7/10-10\9--7-7\5/7\------|
E|-------------------------------------------------------------------------|

Riff A
e|---------------------------------|
B|---------------------------------|
G|---------------------------------|
D|-----------5---------------------|
A|--------5-7--7-5---5-7-7-5-7-----|
E|--7~~------------7---------------|
pm        ....................

Riff B
e|--------------|
B|--------------|
G|--------------|
D|--9-9\7/9\----|
A|--7-7\5/7\----|
E|--------------|

Riff C
e|---------------------------|
B|---------------------------|
G|-------7-------------------|
D|--7h9----9-7-5-7-5---------|
A|-------------------7-7-5-7-|
E|---------------------------|
pm                  ........
 
Riff D 
e|---------------------|
B|------8--------------|
G|--7h9---9-7----------|
D|------------9-7------|
A|----------------9----|
E|----------------7----|

Verse 1
e|------------------------------------------------------------------------|
B|------------------------------------------------------------------------|
G|------------------------------------------------------------------------|
D|-----9-------7-------9--------------------------------------------------|
A|-7-7-7---5-5-5---7-7-7------9-------10------9-7-7\5-5-5/7-7/9-10-12-12~-|
E|------------------------7-7-7---8-8-8---7-7-7---------------------------|
pm . .     . .     . .    . .     . .     . .
Kisah terjadi....

Verse 2
e|---------------------------------------------------|
B|---------------------------------------------------|
G|---------------------------------------------------|
D|---------------------------------------------------|
A|------7------5------9------4--2--4--5--7--9--11----|
E|--5-5-5--3-3-3--7-7-7--2-2-2--0--2--3--5--7--9-----|
pm  . .    . .    . .    . .
Musibah menimpa.....

Riff E
e|-------------|
B|-------------|
G|-------------|
D|-------/11---|
A|--4----/9----|
E|--2----------|

Verse 3
e|---------------------------------------|---------------------------------|
B|---------------------------------------|---------------------------------|
G|----------------------------------2~~--|------------------2--------------|
D|-----------------------------2--4------|----------------------4--2-------|
A|--4------------------0--2--4-----------|-4------------------------4--2-0-|
E|--2-2-2-2-2-2-2-2-2--------------------|-2-2-2-2-2-2-2-2-2---------------|
pm    ..............                         ...............
Kesal hampa....

Riff F
e|------------------|
B|------------------|
G|------------------|
D|------------------|
A|--6-6/7--7/9------|
E|--4-4/5--5/7------|

Verse 4
e|---------------------------------------------------|
B|---------------------------------------------------| Part mark with "*"
G|---------------------------------------------------| play 3 times
D|---------------------------------------------------|
A|------7------5------9------4--2--4--5--7--9--11----|
E|--5-5-5--3-3-3--7-7-7--2-2-2--0--2--3--5--7--9-----|
pm  . .    . .    . .    . .    ****************
Kalau angin...                         3X

Verse 5
e|------------------------------------------------------------------------|
B|------------------------------------------------------------------------|
G|------------------------------------------------------------------------|
D|------------------------------------------2-----------------------------|
A|--7--7--5--7---5--5--3--5---3--3--2--3----0-----5-----4-----9-----------|
E|------------------------------------------------3-----2-----7-----------|
pm  ....................................
                                            Nantikan bersama...
                         
End
e|--------------|
B|--------------|
G|--------------|
D|--9-9\7/9-----|
A|--7-7\5/7-----|
E|--------------|

Feel free to mail me with questions.
Good luck and have a nice day!  Cheers!
            
Tabs too difficult? Try these video lessons and learn fast.


comments powered by Disqus
↑ Back to top | Tablatures and chords are parodies/interpretations of the original songs. You may use it for private study, scholarship, research or language learning purposes only