>
 >
Freedom And Justice

Freedom And Justice Guitar Tabs

A.C.A.B - Freedom And Justice chords, tabs, tablatures, lyrics

Guitar lessons | Add/correct | Request | Top 50 tabs Artists:  A B C D E F G H I J K L M N O P Q R S T U V W X Y Z 0-9

Freedom And Justice Guitar Tabs – A.C.A.B

CD, Sheet music, Poster

Do you like Freedom And Justice? Share with your friends now
Tabs

Please send comments. Also, i would like to hear latest news about OUR band. A.C.A.B!
KEEP THE FAITH!

Thanks for someone who asked me to transcribe this song. Cheers!

STANDARD TUNING E A D G B e


PM = Palm mute
x  = Mute string
b  = bend note
r  = release note
h  = hammer on
p  = pull off
v  = vibrato


RHYTHM PARTS
------------

 INTRO CLEAN
-||----------0-----0-----------1-----1-----------3-----3----------0-----0--||
-||--------1---1-----------------1-----------------3----------------0------||
-||-----2--------0-----------2-----2-----------0-----0----------0-----0----||
-||---2--------------------3-----------------0----------------2------------||
-||-0--------------------3-----------------2----------------2--------------||
-||--------------------1-----------------3----------------0----------------||

DISTORTION
RIFF 1.SOME PARTS OF THE SONG HAVE TO PLAY WITH PALM MUTE
-||---------------||
-||---------------||
-||---------------||
-||--7--3--5--2---||
-||--7--3--5--2---||
-||--5--1--3--0---||
     A  F  G  Em

DISTORTION
RIFF 2.SLOW TEMPO RHYTHM
-||-------------------||
-||-------------------||
-||-------------------||
-||--7--6--5--4--3--5-||
-||--7--6--5--4--3--5-||
-||--5--4--3--2--1--3-||
     A  G# G  F# F  G

DISTORTION
RIFF 3.PART BEFORE SLOW TEMPO RHYTHM(RIFF 2)
-||------------------------------------------------||
-||------------------------------------------------||
-||------------------------------------------------||
-||------------------------------------------------||
-||-----7---------7---------7---------7---------7--||
-||-5-5-5-5-5-5-5-5-5-5-5-5-5-5-5-5-5-5-5-5-5-5-5--||
 PM . .   . . . .   . . . .   . . . .   . . . .   REPEAT FEW TIMES

INTRO SOLO + RIFF 1
-------------------

-||---------------------------------------------------------------------------|
-||---------------------------------------------------------------------------|
-||-7b9r7-5-7b9vvv------7b9r7-5-7vvv----5-4vv-----4h5h7vv--4h5p4--------------|
-||--------------------------------------------------------------5-7vv--------|
-||---------------------------------------------------------------------------|
-||---------------------------------------------------------------------------|


------------------------------------------------------------------------------|
-----------------------------8------------------------------------------------|
-------4-5v-4-5/7vv----5-7b9vvv9r7v--7b9r7-7-5-4-5-4-------4-5-4-5-7-5-4------|
---5-7-----------------------------------------------7-5-7---------------7vv--|
------------------------------------------------------------------------------|
------------------------------------------------------------------------------|
 PM. .

------------------------------------------------------------------------------|
-----------------8------------------------------------------------------------|
---------4-5\7b9vvv9r7vv--7b9r7-7-5-4-----------------------------------------|
-----5-7------------------------------7v--9v--10v--12v--10v--9v--5vv----------|
------------------------------------------------------------------------------|
------------------------------------------------------------------------------|
 PM  . .

------------------------------------------------------------------------------|
------------------------------------------------------------------------------|
---------------------------------------------------------9v--10v--9-10-9------|
---7v--9v--10v--9v--5v--7vv---9v--10v--12v--10v--9v--12v----------------------|
------------------------------------------------------------------------------|
------------------------------------------------------------------------------|


------------------------------------------------------------------------------|
------------------------------------------------------------------------------|
----------------------9v-10v-9v----------------------9v-----------------------|
--12v-10-9-10vv---12v-----------12v-10v-9vv--10v-12v----12v-10v-9v-10vv-------|
------------------------------------------------------------------------------|
------------------------------------------------------------------------------|


-------------------------------------------------------|----------------------|
-------------------------------------------------------|----------------------|
------9v-10v-9v-----10v-12v-12b14vv-12vv-10-9-7-5vvv---|----------------------|
--12v-----------12v------------------------------------|----------------------|
-------------------------------------------------------|----------------------|
-------------------------------------------------------|----------------------|


-|----------------------------------------||
-|----------------------------------------||
-|----------------------------------------||
-|----------------------------------------||
-|-7--9--10-12--10-9--5---7--9--10-9--5---||
-|-5--7--8--10--8--7--3---5--7--8--7--3---||
  REPEAT THIS PART TWO TIMES


SLOW TEMPO SOLO + RIFF 2
------------------------

-||---------------------------------------------------------------------------|
-||-----------------------------------------8---------------------------------|
-||---5-7-7b9r7---------5-7-7b9r7-------7b9vvv9r7-5-------7b9r7-5-7b9r7-------|
-||-7-----------6vv---7-----------5vv---------------4vv-----------------3vv---|
-||---------------------------------------------------------------------------|
-||---------------------------------------------------------------------------|


---------------------------------------------------------------------||
---------------------------------------------------------------------||
---7b9r7-5-7vv--5v-4vv---4h5h7---------------------------------------||
-------------------------------7vvv-------7p5------------------------||
----------------------------------------------7vv---7p5-3vv----------||
------------------------------------------------------------5vvv-----||

SOLO AT MIDDLE OF THE SONG + RIFF2
----------------------------------

-||---------------------------------------------------------------------------|
-||---------------------------------------------------------5v-6v-8v-10v-12v--|
-||-------------------4-5v--4-5-7-5-4-5-4-------------4-5-7-------------------|
-||---------------5-7---------------------7-9-7-5-7v--------------------------|
-||-----------5-7-------------------------------------------------------------|
-||-3/5-5-7-8-----------------------------------------------------------------|
 PM     . . . . .

------------------------------------------------------------------------------|
---13v-15v--13-15-15b17-b17-b17-b17-b17-b17r15-13-15b17x----------------------|
------------------------------------------------------------------------------|
------------------------------------------------------------------------------|
------------------------------------------------------------------------------|
------------------------------------------------------------------------------|


-12-13-15-13-12-13-12------------------10-12-13-12-10-12-10-------------------|
----------------------15-17-15-13-15v-----------------------13-12-13-15-13----|
------------------------------------------------------------------------------|
------------------------------------------------------------------------------|
------------------------------------------------------------------------------|
------------------------------------------------------------------------------|


------------------------------------------------15----------------------------|
-12-13-12-13-15-15b17r15------------13-15-15b17vvvv17r15--13-15b17r15-13------|
-------------------------14vvv---14--------------------------------------14vv-|
------------------------------------------------------------------------------|
------------------------------------------------------------------------------|
------------------------------------------------------------------------------|





Comments


Popular A.C.A.B tabs & chords
Where Have All The Bootboys Gone? Bass Tabs
Bersama Semula Chords
Bunga Padang Pasir Chords
Setelah Chords
Bersama Semula 2 Tabs
Bunga Padang Pasir Intro Tabs
Streets Of Uptown 3 Tabs
Violence (Intro) Tabs
Bunga Padang Pasir Ukulele
Where Have All The Boot Boys Gone Ukulele


Song lyrics



↑ Back to top | Tablatures and chords are parodies/interpretations of the original songs. You may use it for private study, scholarship, research or language learning purposes only
© 2014 AZChords.com Contact us | Privacy policy | DMCA | Add/correct tabs | Request tabs | Top 50 tabs