» » »

A.C.A.B, Acab Bass tabs (ver.1)

Artists:  A B C D E F G H I J K L M N O P Q R S T U V W X Y Z # 

Acab Bass tabs (ver.1)

A.C.A.B Tabs
Rating:
0/5 (0 votes)
Acab lessons Tabs too difficult? Try these video lessons and learn fast
                -------------------------------------------------------------------------------
                              A.C.A.B - A.C.A.B.
-------------------------------------------------------------------------------

Tuning: Standard E


Intro & Verse:

G|-----------------|-----------------|-----------------|-----------------|
D|-----------------|-----------------|-----------------|-----------------|
A|-0---0-0-0-0-0-0-|-5-5-5-3-3-3-2-2-|-----------------|-----------------|
E|-----------------|-----------------|-3---3-3-3-3-3-3-|-3-3-3-3-1---3---|


Chorus:

G|-----------------|-----------------|-----------------|-----------------|
D|-----------------|-----------------|-----------------|-----------------|
A|-----------------|-----------------|-0-0-0-2-2-2-3-3-|-3-2-2-2-0-0-----|
E|-1---1-1-1-1-1-1-|-3---3-3-3-3-3-3-|-----------------|-------------3-3-|

G|-----------------|-----------------|-----------------|-----------------|
D|-----------------|-----------------|-----------------|-----------------|
A|-----------------|-----------------|-0-0-0-0-0-0-0-0-|-0-0-0-0-0-0-0-0-|
E|-1---1-1-1-1-1-1-|-3---3-3-3-3-3-3-|-----------------|-----------------|


===============================================================================
            
Submit corrections

comments powered by Disqus
↑ Back to top | A.C.A.B Bass for Acab. Lyrics for acoustic guitar and electric guitar. Tablatures and chords are parodies/interpretations of the original songs. You may use it for private study, scholarship, research or language learning purposes only