» » »

Abyss, Psycomantum Tabs (ver.1)

Artists:  A B C D E F G H I J K L M N O P Q R S T U V W X Y Z # 

Psycomantum Tabs (ver.1)

Abyss Tabs
Rating:
0/5 (0 votes)
Psycomantum lessons Tabs too difficult? Try these video lessons and learn fast
                                             THE ABYSS - PSYCOMANTUM
                             From the album THE OTHER SIDE

                            Version 2.0 - March 1997


Check out 's Death Tab At
        

join the death/black tab mailing list my emailing 

Tune down to C (2 steps down)

RIFF1:
|-------------------------------------------------------------------
|-------------------------------------------------------------------
|-------------------------------------------------------------------
|-------------------------------------------------------------------
|--7777-10101010-9999-10101010-99999999-7777-10101010-9999-10101010-
|-------------------------------------------------------------------

     ----------------------------------------------------------
     ----------------------------------------------------------
     ----------------------------------------------------------
     ----------------------------------7777--------------------
     -9999-10101010------10101010-9999------10101010-9999------
     ---------------8888----------------------------------8888-

     -----------------------------------|
     -----------------------------------|
     -----------------------------------|
     ---------------7777----------------|
     -10101010-9999------10101010-9999--|
     -----------------------------------|

FILL1:
   E      E      C       C
|----------------------------|
|----------------------------|
|----------------------------|
|--2------2------10------10--|
|--2------2------10------10--|
|--0------0------8-------8---|

FILL2:
|-----------------------------------------------------------------
|-----------------------------------------------------------------
|-----------------------------------------------------------------
|--9999-12121212-11111111-12121212-1111111111111111-9999-12121212-
|-----------------------------------------------------------------
|-----------------------------------------------------------------

    ----------------------------------------------------------------
    ----------------------------------------------------------------
    ----------------------------------------------------------------
    -11111111-12121212-11111111-12121212----------12121212-11111111-
    -------------------------------------10101010-------------------
    ----------------------------------------------------------------

    --------------------------------------------------------
    --------------------------------------------------------
    -9999----------------------------------------------9999-
    ------12121212-11111111----------12121212-11111111------
    ------------------------10101010------------------------
    --------------------------------------------------------

    --------------------|
    --------------------|
    --------------------|
    -12121212-11111111--|
    --------------------|
    --------------------|

RIFF2:
|--------------------------------------------------------------
|--------------------------------------------------------------
|--------------------------------------------------------------
|-------7777------8888------7777------8888------8888------9999-
|--5555------5555------5555------5555------6666------6666------
|--------------------------------------------------------------

    ----------------------|
    ----------------------|
    ----------------------|
    ------8888------9999--|
    -6666------6666-------|
    ----------------------|

FILL3:
|----------------------------------------------------------------
|----------------------------------------------------------------
|-------9999------10101010------9999------10101010------10101010-
|--7777------7777----------7777------7777----------8888----------
|----------------------------------------------------------------
|----------------------------------------------------------------

    --------------------------------------------|
    --------------------------------------------|
    ------11111111------10101010------11111111--|
    -8888----------8888----------8888-----------|
    --------------------------------------------|
    --------------------------------------------|

RIFF3:
|---------------------------------|
|---------------------------------|
|--11111111-9999-12121212-1111-99-|
|--9-9-9-9--9999-9-9-9-9--9-9--99-|
|---------------------------------|
|---------------------------------|

RIFF4:
|---------------------------------|
|---------------------------------|
|---------------------------------|
|--11111111-9999-12121212-1111-99-|
|--9-9-9-9--9999-9-9-9-9--9-9--99-|
|---------------------------------|

Riff 5:
|----------------------------------------|
|----------------------------------------|
|----------------------------------------|
|----------------------------------------|
|--11111111-9999-12121212-11111111-9999--|
|--9-9-9-9--7777-10101010 9-9-9-9--7777--|
|----------------------------------------|

RIFF6:(when playing pull up on the whammy bar ever so slightly to get that
cool out of tune sound)
|-----------------------|
|-----------------------|
|-----------------------|
|-----------------------|
|-/8---7---10-9----5-4--|
|-/6---5---8--7----3-2--|

NOTES:
  - the chords on FILL1 are played every time the 7th fret on the 5th
    string and the 8th fret on the 6th string are played.
  - pay attention to this part of FILL2, FILL3 and FILL4:
    11111111 - it refers to fret 11 and NOT to fret 1!!

SONG STRUCTURE:
RIFF1 (2X) w/FILL1
RIFF1 (2X) w/FILL2
RIFF2 (2X)
RIFF2 (2X) w/FILL3
RIFF1 (2X) w/FILL2
RIFF3 (6X)
RIFF4 (2X) w/FILL4
RIFF3 (4X)
RIFF5 (4X) 
RIFF6 (8X)
RIFF1 (4X) w/FILL2

LYRICS:
sorry, but I don't have it...
if you know this or any other lyric from THE ABYSS
            
Submit corrections

comments powered by Disqus
↑ Back to top | Abyss Tabs for Psycomantum. Lyrics for acoustic guitar and electric guitar. Tablatures and chords are parodies/interpretations of the original songs. You may use it for private study, scholarship, research or language learning purposes only