» » »

Absurd, Eternal Winter Tabs (ver.1)

Artists:  A B C D E F G H I J K L M N O P Q R S T U V W X Y Z # 

Eternal Winter Tabs (ver.1)

Absurd Tabs
Rating:
0/5 (0 votes)
Eternal Winter lessons Tabs too difficult? Try these video lessons and learn fast
                Intro:
E|---0----0----1----1----0----0--11111111-------------------|
H|--1-1--1-1--3-3--3-3--1-1--1-1-33333333-------------------|
G|-2----2----3----3----2----2----33333333-------------------|
D|----------------------------------------------------------|
A|----------------------------------------------------------|
E|----------------------------------------------------------|

Riff1
E|----------------------------------------------------------|
H|----------------------------------------------------------|
G|----------------------------------------------------------|
D|-2222222222222222-3333333333333333------------------------|
A|-0000000000000000-1111111111111111------------------------|
E|----------------------------------------------------------|

Strophe
E|----------------------------------------------------------|
H|----------------------------------------------------------|
G|----------------------------------------------------------|
D|-2222222222222-55555-33333333333333-222-------------------|
A|-0000000000000-33333-11111111111111-000-------------------|
E|----------------------------------------------------------|

Riff2
E|----------------------------------------------------------|
H|----------------------------------------------------------|
G|----------------------------------------------------------|
D|-222222222222----222222222222-55--------------------------|
A|-000000000000-55-000000000000-33--------------------------|
E|--------------33------------------------------------------|

Chorus
E|----------------------------------------------------------|
H|----------------------------------------------------------|
G|----------------------------------------------------------|
D|-77777777-44444444----------------------------------------|
A|-55555555-22222222-55555555-22222222----------------------|
E|-------------------33333333-00000000----------------------|

Riff3:
E|----------------------------------------------------------|
H|----------------------------------------------------------|
G|----------------------------------------------------------|
D|----------------------------------------------------------|
A|-3-35-5-57-7----------------------------------------------|
E|-1-13-3-35-5----------------------------------------------|

Riff1
Strophe
Riff2
Chorus
Riff3
Riff1

Strophe

Riff2

Strophe

Riff2 
Chorus
Riff3

Solo:
E|-8-7-5-8-7-5-8-7-5--9-8-6-9-8-6-9-8-6---------------------|
H|----------------------------------------------------------|
G|----------------------------------------------------------|
D|----------------------------------------------------------|
A|----------------------------------------------------------|
E|----------------------------------------------------------|

E|----------------------------------------------------------|
H|----0-----------------------------------------------------|
G|-2-2------------------------------------------------------|
D|-2-2-33333333---------------------------------------------|
A|-0---11111111---------------------------------------------|
E|----------------------------------------------------------|
            
Submit corrections

comments powered by Disqus
↑ Back to top | Absurd Tabs for Eternal Winter. Lyrics for acoustic guitar and electric guitar. Tablatures and chords are parodies/interpretations of the original songs. You may use it for private study, scholarship, research or language learning purposes only