» » »

Abney Park, The Wake Chords (ver.1)

Artists:  A B C D E F G H I J K L M N O P Q R S T U V W X Y Z # 

The Wake Chords (ver.1)

Abney Park Tabs
 Rating:
4/5 (4 votes)
The Wake lessons Tabs too difficult? Try these video lessons and learn fast
                -------------------------------------------------------------------------------
-------------------------------------------------------------------------------

Tuning: Standard

This tab is based off of the 2005 mix from the Taxidermy album; this song is mostly 
played with heavy distortion.


--Chords--

The guitar plays a sixteenth rhythm of fifth chords throughout the song; this serves as 
the chord structure for all parts, verse and chorus included.

Gm                        F             Gm
Debbie dates daily with a boy for every finger

    Gm                              F              Gm
She leaves with one now and leaves another left to linger

Bb                            Am                Gm     F   Gm
Coldly Debbie tells me it's a world of give and take

    Gm           F                 Gm
But I say "Debbie, bring it closer to the wake."


--Bridge Riff--

This riff is played during the bridge, which occurs after the second chorus and begins 
with the lyrics "Jason jets his jag up to speeds that's past eleven."

    Gm  F  Gm                     Gm  F  Gm
e|-----------------------------|-----------------------------|
B|-----------------------------|-----------------------------|
G|-----------------------------|-----------------------------|
D|--/5--3--5--3h5p3------------|--/5--3--5--3h5p3------------|
A|------------------3hp5-------|------------------3hp5-------|
E|-----------------------6p5p3-|-----------------------6p5p3-|

    Bb  Am Gm                     Gm  F  Gm
e|-----------------------------|-----------------------------|
B|-----------------------------|-----------------------------|
G|-----------------------------|-----------------------------|
D|--/8--7--5--3h5p3------------|--/5--3--5--3h5p3------------|
A|------------------3hp5-------|------------------3hp5-------|
E|-----------------------6p5p3-|-----------------------6p5p3-|

************************************

| /   slide up
| \   slide down
| h   hammer-on
| p   pull-off
| ~   vibrato
| +   harmonic
| x   Mute note
| b   Bend
| pb  Pre-bend
| br  Bend release
| pbr Pre-bend release
| brb Bend release bend

************************************
            
Submit corrections

comments powered by Disqus
↑ Back to top | Abney Park Chords for The Wake. Lyrics for acoustic guitar and electric guitar. Tablatures and chords are parodies/interpretations of the original songs. You may use it for private study, scholarship, research or language learning purposes only