» » »

Abney Park, The Secret Life Of Dr Calgori Bass tabs (ver.1)

Artists:  A B C D E F G H I J K L M N O P Q R S T U V W X Y Z # 

The Secret Life Of Dr Calgori Bass tabs (ver.1)

Abney Park Tabs
 Rating:
4.2/5 (5 votes)
The Secret Life Of Dr Calgori lessons Tabs too difficult? Try these video lessons and learn fast
                -------------------------------------------------------------------------------
		  The Secret Life of Dr. Calgori - Abney Park
-------------------------------------------------------------------------------


Tuning:Standard (EADG)

~ Let note ring out

I worked really hard to get this tab as perfect as possible.  


First Verse:
G|--------------------------------|
D|--------------------------------|
A|-3---3---6---3------------------|  X 5
E|-----------------4---6---3---6--|

G|--------------------------------|
D|--------------------------------|
A|-3---3---6---3------------------|
E|-----------------4---6---3~~----|

G|--------------------------------|--------------------------------|
D|--------------------------------|--------------------------------|
A|-3---3---6---3------------------|-3---3---6---3------------------|
E|-----------------4---6---3---6--|-----------------4---6---3~~----|

REST

After violin solo-
Chorus 1:
G|--------------------------------|
D|--------------------------------|
A|-3----5-6-5--3------------------| X 4
E|-----------------4---6---3----6-|


Verse 2:
G|--------------------------------|--------------------------------|
D|--------------------------------|--------------------------------|
A|-3---3---6---3------------------|-3---3---6---3------------------|
E|-----------------4---6---3---6--|-----------------4---6---3~~----| X 4

SHORT REST

Chorus 2:
G|--------------------------------|
D|--------------------------------|
A|-3----5-6-5--3------------------| X 8
E|-----------------4---6---3----6-|


Verse 3:
G|--------------------------------|--------------------------------|
D|--------------------------------|--------------------------------|
A|-3---3---6---3------------------|-3---3---6---3------------------|
E|-----------------4---6---3---6--|-----------------4---6---3~~----| X 4


Violin Solo:
G|--------------------------------|
D|--------------------------------|
A|-3-3--5-6-5--3------------------| X 4
E|-----------------4---6---3~---6-|


Chorus 3:
G|--------------------------------|
D|--------------------------------|
A|-3-3--5-6-5--3------------------| X 12
E|-----------------4---6---3---6--|


Ending:
G|--------------------------------|
D|--------------------------------|
A|-3-3--5-6-5--3--------------0-2-| X 3
E|-----------------4---6---3------|

G|--------------------------------------|
D|--------------------------------------|
A|-3-3--5-6-5--3--------------0-2-3~~~--|
E|-----------------4---6---3------------|

BASS PART ENDS
BELLS FADE, SONG ENDS

=================================================================================
            
Submit corrections

comments powered by Disqus
↑ Back to top | Abney Park Bass for The Secret Life Of Dr Calgori. Lyrics for acoustic guitar and electric guitar. Tablatures and chords are parodies/interpretations of the original songs. You may use it for private study, scholarship, research or language learning purposes only