» » »

Abney Park, The Death Of The Hero Bass tabs (ver.1)

Artists:  A B C D E F G H I J K L M N O P Q R S T U V W X Y Z # 

The Death Of The Hero Bass tabs (ver.1)

Abney Park Tabs
 Rating:
4.2/5 (5 votes)
The Death Of The Hero lessons Tabs too difficult? Try these video lessons and learn fast
                -------------------------------------------------------------------------------
-------------------------------------------------------------------------------


Tuning:Standard (EADG)

This one was harder than some of my previous tabs, but i made sure to get it right, so enjoy!


Rest for eight seconds, bass starts at about 0:08

Intro:
G|-----------|    G|-----------------------|-----------------------|
D|-----------|    D|-----------------------|-----------------------|
A|-----------|    A|--00--00--00--00-3---5-|--00--00--00--00-----3-|  X 4
E|--0--3--0--|    E|-----------------------|-----------------3-----|

First Verse:                                       __
G|-----------------------|-----------------------|   }
D|-----------------------|-----------------------|   }
A|--00--00--00--00-3---5-|--00--00--00--00-----3-|   }
E|-----------------------|-----------------3-----|   }
                                                     }
G|-----------------------|-----------------------|   }
D|-----------------------|-----------------------|   }  X2
A|--00--00--00--00-3---5-|--00--00--00---0-----3-|   }
E|-----------------------|-----------------3-----| __}

Bridge:
G|----------------|----------------|----------------|----------------|
D|----------------|----------------|----------------|----------------|
A|-0---0---0---0--|-2---2---2---2--|-3---3---3---3-5|-2---2---2---2-3| X 2
E|----------------|-----------4---4|-----------5----|-----------4----|

Second Verse:                                      
G|-----------------------|-----------------------|   
D|-----------------------|-----------------------|   
A|--00--00--00--00-3---5-|--00--00--00--00-----3-|  X 4  
E|-----------------------|-----------------3-----|   
                                                    
Chorus: 
G|------------------------------------------------------------------|
D|------------------------------------------------------------------|
A|-0-0-0-0-0-0-0-0-3-3-3-3-3-2-3-4-5-5-5-5-5-4-5-6-7-7-7-7-7-8-7\3--| X 2
E|------------------------------------------------------------------|

Post-Chorus:
G|----------------|----------------|----------------|-----------------|
D|----------------|----------------|----------------|-----------------|
A|-00-00---00--0--|-33-33---33--3--|-55-55---55--5--|-7-7-7-7-7-8-7---| X 2
E|----------------|----------------|----------------|---------------8-|

Pre-Verse and Third Verse:
G|-----------|    G|-----------------------|-----------------------|
D|-----------|    D|-----------------------|-----------------------|
A|-----------|    A|--00--00--00--00-3---5-|--00--00--00--00-----3-|  X 6
E|--0--3--0--|    E|-----------------------|-----------------3-----|

Bridge:
G|----------------|----------------|----------------|----------------|
D|----------------|----------------|----------------|----------------|
A|-0---0---0---0--|-2---2---2---2--|-3---3---3---3-5|-2---2---2---2-3| X 2
E|----------------|-----------4---4|-----------5----|-----------4----|

Chorus 2:
G|------------------------------------------------------------------|
D|------------------------------------------------------------------|
A|-0-0-0-0-0-0-0-0-3-3-3-3-3-2-3-4-5-5-5-5-5-4-5-6-7-7-7-7-7-8-7\3--| X 2
E|------------------------------------------------------------------|

Post-Chorus:
G|----------------|----------------|----------------|-----------------|
D|----------------|----------------|----------------|-----------------|
A|-00-00---00--0--|-33-33---33--3--|-55-55---55--5--|-7-7-7-7-7-8-7---| X 4
E|----------------|----------------|----------------|---------------8-|

Ending:
G|-----------|    G|-----------------------|-----------------------|
D|-----------|    D|-----------------------|-----------------------|
A|-----------|    A|--00--00--00--00-3---5-|--00--00--00--00-----3-|  X 4
E|--0--3--0--|    E|-----------------------|-----------------3-----|


| /  slide up
| \  slide down
===============================================================================
            
Submit corrections

comments powered by Disqus
↑ Back to top | Abney Park Bass for The Death Of The Hero. Lyrics for acoustic guitar and electric guitar. Tablatures and chords are parodies/interpretations of the original songs. You may use it for private study, scholarship, research or language learning purposes only