» » »

She Tabs (ver.1)

Artists:  A B C D E F G H I J K L M N O P Q R S T U V W X Y Z # 

She Tabs (ver.1)

Abney Park
Rating:
0/5 (0 votes)

Hard to play? Try these video lessons and learn fast.
                VERSE1:


E|------------------|
B|------------------|
G|-5~--5------------|
D|-5~--5--5--6~-----|
A|-3~--3--5--6~-----|
E|--------3--4~-----|

E|----------------------|
B|----------------------|
G|-5~--5----------------|
D|-5~--5---5---6~--6--6-|
A|-3~--3---5---6~--6--6-|
E|---------3---4~--4--4-|
          P.M

E|------------------|
B|------------------|
G|-5~--5------------|
D|-5~--5--5--6~-----|
A|-3~--3--5--6~-----|
E|--------3--4~-----|


E|----------------------|
B|----------------------|
G|-5~--5----------------|
D|-5~--5---5---6~--6--6-|
A|-3~--3---5---6~--6--6-|
E|---------3---4~--4--4-|

E|------------------|
B|------------------|
G|-5~--5------------|
D|-5~--5--5--6~-----|
A|-3~--3--5--6~-----|
E|--------3--4~-----|

CHORUS1:


E|------------------------    |
B|------------------------    |
G|-5~--5-5-5-5--5--5-5-5-5    |
D|-5~--5-5-5-5--5--5-5-5-5    |
A|-3~--3-3-3-3--3--3-3-3-3    |
E|------------------------    |
       P.M................    |
                              |
                              |  X4
                              |
E|------------------------    |
B|------------------------    |
G|------------------------    |
D|-6~--6-6-6-6--6--6-6-6-6    |
A|-6~--6-6-6-6--6--6-6-6-6    |
E|-4~--4-4-4-4--4--4-4-4-4    |
       P.M................    |

E|----------------            |
B|----------------            |
G|-5-5-5-5-5-5-5-5            |
D|-5-5-5-5-5-5-5-5            |
A|-3-3-3-3-3-3-3-3            |
E|----------------            |
  P.M.............            |
                              | X4
                              |
E|----------------            |
B|----------------            |
G|----------------            |
D|-6-6-6-6-6-6-6-6            |
A|-6-6-6-6-6-6-6-6            |
E|-4-4-4-4-4-4-4-4            |
  P.M.............            |

E|-----------------|
B|-----------------|
G|-5~--------------|
D|-5~--------------|
A|-3~--------------|
E|-----------------|


VERSE2:


E|------------------|
B|------------------|
G|-5~--5------------|
D|-5~--5--5--6~-----|
A|-3~--3--5--6~-----|
E|--------3--4~-----|

E|----------------------|
B|----------------------|
G|-5~--5----------------|
D|-5~--5---5---6~--6--6-|
A|-3~--3---5---6~--6--6-|
E|---------3---4~--4--4-|
          P.M

E|------------------|
B|------------------|
G|-5~--5------------|
D|-5~--5--5--6~-----|
A|-3~--3--5--6~-----|
E|--------3--4~-----|


E|----------------------|
B|----------------------|
G|-5~--5----------------|
D|-5~--5---5---6~--6--6-|
A|-3~--3---5---6~--6--6-|
E|---------3---4~--4--4-|


CHORUS2:


E|------------------------    |
B|------------------------    |
G|-5~--5-5-5-5--5--5-5-5-5    |
D|-5~--5-5-5-5--5--5-5-5-5    |
A|-3~--3-3-3-3--3--3-3-3-3    |
E|------------------------    |
       P.M................    |
                              |
                              |  X4
                              |
E|------------------------    |
B|------------------------    |
G|------------------------    |
D|-6~--6-6-6-6--6--6-6-6-6    |
A|-6~--6-6-6-6--6--6-6-6-6    |
E|-4~--4-4-4-4--4--4-4-4-4    |
       P.M................    |

E|----------------            |
B|----------------            |
G|-5-5-5-5-5-5-5-5            |
D|-5-5-5-5-5-5-5-5            |
A|-3-3-3-3-3-3-3-3            |
E|----------------            |
  P.M.............            |
                              | X3
                              |
E|----------------            |
B|----------------            |
G|----------------            |
D|-6-6-6-6-6-6-6-6            |
A|-6-6-6-6-6-6-6-6            |
E|-4-4-4-4-4-4-4-4            |
  P.M.............            |


E|-----------------|
B|-----------------|
G|-5-5-5-5-5-5-5-5-|
D|-5-5-5-5-5-5-5-5-|
A|-3-3-3-3-3-3-3-3-|
E|-----------------|
  P.M.............
            
Hard to play? Try these video lessons and learn fast. | Correct




comments powered by Disqus
↑ Back to top | Tablatures and chords are parodies/interpretations of the original songs. You may use it for private study, scholarship, research or language learning purposes only