» » »

Abk, Ghetto Neighbor Tabs (ver.1)

Artists:  A B C D E F G H I J K L M N O P Q R S T U V W X Y Z # 

Ghetto Neighbor Tabs (ver.1)

Abk Tabs
Rating:
0/5 (0 votes)
Ghetto Neighbor lessons Tabs too difficult? Try these video lessons and learn fast
                Anybody Killa-Ghetto Neighbor


Drop D Tuning


Chorus 
e----------------------------
B----------------------------
G----------------------------
D-2---2------0---0--2---2----
A-0-2-0-2--5-0-5-0--0-2-0-2--
D---2---2--5-0-5-0----2---2--

Do a small pick scr*pe before the 1st and 2nd chorus. Before the third chorus do this palm muted, 

e---------------------
B---------------------
G---------------------
D---------------------
A-7--7-7-7-7-7-7--7/--
D-7--7-7-7-7-7-7--7/--

Bridge
e----------------------------------------------
B----------------------------------------------
G----------------------------------------------
D-7-------------5-------------7-------------5--
A-7(many times)-5(many times)-7(many times)-5--
D-7-------------5-------------7-------------5--

Yeah I didn't feel like tabbin each individual time you play the note, but as you can hear in the song, it's these notes very fast and a lot of times, and then the last one is just once before it repeats. 
            
Submit corrections

comments powered by Disqus
↑ Back to top | Abk Tabs for Ghetto Neighbor. Lyrics for acoustic guitar and electric guitar. Tablatures and chords are parodies/interpretations of the original songs. You may use it for private study, scholarship, research or language learning purposes only