» » »

Abingdon Boys School, Via Dolorosa Tabs (ver.1)

Artists:  A B C D E F G H I J K L M N O P Q R S T U V W X Y Z # 

Via Dolorosa Tabs (ver.1)

Abingdon Boys School Tabs
 Rating:
3.4/5 (5 votes)
Via Dolorosa lessons Tabs too difficult? Try these video lessons and learn fast
                (Intro)
Intro:

|---------------------------------------------------------------|
|---------------------------------------------------------------|
|---------------------------------------------------------------|
|-6-----5------3-5----5-3-5-----------3-----------------6--6--8-|
|---6-3----6-3------3--------6-5-3-6----3-5-6--5-3-6-3--6--6--8-|
|-------------------------------------------------------6--6--8-|

|---------------------------------------------------------------|
|---------------------------------------------------------------|
|---------------------------------------------------------------|
|-6-----5------3-5----5-3-5-----------6----6-----------3--10--8-|
|---6-3----6-3------3--------6-5-3-6--6----6-----------3--10--8-|
|-------------------------------------6----6-----------3--10--8-|

|---------------------------------------------------------------|
|---------------------------------------------------------------|
|---------------------------------------------------------------|
|-6-----5------3-5----5-3-5-----------3-----------------6--6--8-|
|---6-3----6-3------3--------6-5-3-6----3-5-6--5-3-6-3--6--6--8-|
|-------------------------------------------------------6--6--8-|

|---------------------------------------------------------------|
|---------------------------------------------------------------|
|---------------------------------------------------------------|
|-6-----5------3-5----5-3-5-----------6----6----5---------------|
|---6-3----6-3------3--------6-5-3-6--6----6----5---------------|
|-------------------------------------6----6----5---------------|

Right after the silent part:

|------------------------------|
|-3-----4-----4-----4-----4-6--|
|------------------------------|
|---3-5---5-6---6-5---6-5------|
|------------------------------|
|------------------------------|
            
Submit corrections

comments powered by Disqus
↑ Back to top | Abingdon Boys School Tabs for Via Dolorosa. Lyrics for acoustic guitar and electric guitar. Tablatures and chords are parodies/interpretations of the original songs. You may use it for private study, scholarship, research or language learning purposes only