>
 >
Innocent Sorrow

Innocent Sorrow Guitar Tabs

Abingdon Boys School - Innocent Sorrow chords, tabs, tablatures, lyrics

Guitar lessons | Add/correct | Request | Top 50 tabs Artists:  A B C D E F G H I J K L M N O P Q R S T U V W X Y Z 0-9

Innocent Sorrow Guitar Tabs – Abingdon Boys School

CD, Sheet music, Poster

Do you like Innocent Sorrow? Share with your friends now
Tabs


 
Tuning: Drop-D half step down (C# G# C# F# A# D#)

intro:

D#|------------------------|
A#|------------------------|
F#|----4--7----------------|
C#|----4--7--7--2--4--0----|  X2
G#|----2--5--7--2--4--0----|
C#|----------7--2--4--0----|

Verse:

D#|-------------------------------------------------|
A#|-------------------------------------------------|
F#|-------------------------------------------------|
C#|----9-9---9-9---9-9\------5-5---5-5--x-x-x--5----|  X2
G#|----9-9---9-9---9-9\------5-5---5-5--x-x-x--5----|
C#|----9-9---9-9---9-9\------5-5---5-5--x-x-x--5----|

          saketa mune no   kizuguchi ni
          afure nagareru   PAIN In the dark


D#|---------x-x-x-x-------x-x-x-x-----------------x-x-x-x-------x-x-x-x--------|
A#|---------x-x-x-x-------x-x-x-x-----------------x-x-x-x-------x-x-x-x--------|
F#|---------x-x-x-x-------x-x-x-x-----------------x-x-x-x-------x-x-x-x--------|
C#|----9-9--x-x-x-x--9-9--x-x-x-x--9-9\------5-5--x-x-x-x--5-5--x-x-x-x---5----|X2
G#|----9-9--x-x-x-x--9-9--x-x-x-x--9-9\------5-5--x-x-x-x--5-5--x-x-x-x---5----|
C#|----9-9--x-x-x-x--9-9--x-x-x-x--9-9\------5-5--x-x-x-x--5-5--x-x-x-x---5----|


           kasane            aeta                shunkan          no
           tsunagaru          omoi               tokashite


Bridge:

D#|------------------------------------------------------|
A#|------------------------------------------------------|
F#|------------------------------------------------------|
C#|----7-------5------------7----2---9--7--9--7----------|
G#|----7-------5------------7----2---9--7--9--7----------|
C#|----7-------5------------7----2---9--7--9--7----------|

       samenai netsu  ni      unasarete

D#|------------------------------------x-x--x-x--x-x--x-x----|
A#|------------------------------------x-x--x-x--x-x--x-x----|
F#|-----------------------5------------x-x--x-x--x-x--x-x----|
C#|----4---------5--------5--5--2--4---x-x--x-x--x-x--x-x----|
G#|----4---------5--------3--2--2--4---x-x--x-x--x-x--x-x----|
C#|----4---------5--------------2--4---x-x--x-x--x-x--x-x----|

       saigo no koe mo    kikoenai


Chorus:

D#|----------------------------------------------------------------------------|
A#|----------------------------------------------------------------------------|
F#|-----------------------7------------------------------------4--------7------|
C#|----5------------------7--------------------4---------------4----7---7------|
G#|----5------------------5--------------------4---------------2----4---5------|
C#|----5---------------------------------------4-------------------------------|


Don't cry kowaresou na hodo dakishimetara kimi ga furuete ita           Oh

D#|---------------------------------------------------------|
A#|---------------------------------------------------------|
F#|------------------------4----7---------------------------|
C#|----5-------------------4----7----------5-5-5-5-5--5--5--|
G#|----5-------------------2----5----------5-5-5-5-5--5--5--|
C#|----5-----------------------------------5-5-5-5-5--5--5--|

    sotto kazasu tenohira ni    furete misete

D#|-----------------------------------------|
A#|-------------------------------------3---|
F#|-------------------------------------2---|
C#|----7-7-7-7-7--7--7------------------0---|
G#|----7-7-7-7-7--7--7------------------0---|
C#|----7-7-7-7-7--7--7------------------0---|

                      Never Until the end


Verse 2: Same as verse 1

Bridge 2: Same as bridge 1

Chorus 2: This is slightly different from chorus 1

D#|----------------------------------------------------------------------------|
A#|----------------------------------------------------------------------------|
F#|-----------------------7------------------------------------4----6---7------|
C#|----5------------------7--------------------4---------------4----6---7------|
G#|----5------------------5--------------------4---------------2----4---5------|
C#|----5---------------------------------------4-------------------------------|


Don't cry kowaresou na hodo dakishimetara kimi ga furuete ita           Oh

D#|---------------------------------------------------------|
A#|---------------------------------------------------------|
F#|------------------------4----7---------------------------|
C#|----5-------------------4----7----------5-5-5-5-5--5--5--|
G#|----5-------------------2----5----------5-5-5-5-5--5--5--|
C#|----5-----------------------------------5-5-5-5-5--5--5--|

    sotto kazasu tenohira ni    furete misete

D#|-------------------------------------------------------------------|
A#|-------------------------------------------------------------------|
F#|-------------------------------------------------------------------|
C#|----7-7-7-7-7--7--7-------------5-5-5-5-5--5--5----7--9------12----|
G#|----7-7-7-7-7--7--7-------------5-5-5-5-5--5--5----7--9--12--12----|
C#|----7-7-7-7-7--7--7-------------5-5-5-5-5--5--5----7--9--11--12----|

                        Never Until the end

Solo:

Rythm Guitar:

D#|--------------------------------------------|
A#|--------------------------------------------|
F#|----10--10-10--6--6-6---9--9-9---7--7-7-----|
C#|----10--10-10--6--6-6---9--9-9---7--7-7-----|
G#|----9---9--9---4--4-4---7--7-7---5--5-5-----|
C#|--------------------------------------------|

D#|--------------------------------------------|
A#|--------------------------------------------|
F#|----10--10-10--6--6-6---7--7-7---7--7-7-----|
C#|----10--10-10--6--6-6---7--7-7---7--7-7-----|
G#|----9---9--9---4--4-4---5--5-5---5--5-5-----|
C#|--------------------------------------------|

D#|--------------------------------------------|
A#|--------------------------------------------|
F#|----10--10-10--6--6-6---9--9-9---7--7-7-----|
C#|----10--10-10--6--6-6---9--9-9---7--7-7-----|
G#|----9---9--9---4--4-4---7--7-7---5--5-5-----|
C#|--------------------------------------------|

D#|--------------------------------------------|
A#|--------------------------------------------|
F#|----10--10-10--6--6-6---7--7-7---7--7-7-----|
C#|----10--10-10--6--6-6---7--7-7---7--7-7-----|
G#|----9---9--9---4--4-4---5--5-5---5--5-5-----|
C#|--------------------------------------------|

Lead Guitar:

D#|---------------------------------------------------------------------|
A#|---------------------------------------------------------------------|
F#|----/11-x--11-11-11\6--x--6--6--6/7/9--x--9--9--9\7--x--7--7--7\-----|
C#|--------x--------------x---------------x-------------x---------------|
G#|----/9--x---9--9--9\4--x--4--4--4/5/9--x--7--7--7\5--x--5--5--5\-----|
C#|---------------------------------------------------------------------|


D#|----------------------------------------------17---14--15-15---|
A#|--------------15-14---10--10-10---17--17-15--------------------|
F#|-----11--11-----------------------------------14---11--12-12---|
C#|--------------12-11---7---7--7----14--14-12--------------------|
G#|------9--9-----------------------------------------------------|
C#|---------------------------------------------------------------|


Lead Guitar With Wah:

D#|-----------------------|      |------------------------|
A#|---3--2----------------|      |------------------------|
F#|---------4--2----------|  x5  |--3--2----4--2-4-0------|
C#|---------------4--2----|      |------------------------|
G#|-----------------------|      |------------------------|
C#|-----------------------|      |------------------------|

D#|----------------------------------|
A#|----------10-7-----10-7-----------|
F#|--7-9b11-------9-7------9-7-------|
C#|----------------------------9-7---|
G#|----------------------------------|
C#|----------------------------------|

D#|---------------------------------|
A#|---------10-7-----10-7-----------|
F#|---9b11-------9-7------9-7-------|
C#|---------------------------9-7---|
F#|---------------------------------|
C#|---------------------------------|

D#|----------------------------------------|
A#|--------------10-7---------------7-10---|
F#|----------9-7------9-7------9b11--------|
C#|-----------------------9-7--------------|
G#|----------------------------------------|
C#|----------------------------------------|

D#|--7-9-10-9-7-------7------------------------10---|
A#|-------------10b12---10b12----10-7----------10---|
F#|-----------------------------------9-7------9b11-|
C#|---------------------------------------9-7-------|
G#|-------------------------------------------------|
C#|-------------------------------------------------|


Solo end:

D#|------------------------------------------------------------------------|
A#|------------------------------------------------------------------------|
F#|------------------------------------------------------------------------|
C#|--10-10----10--9--9--7-7-----2--2-2--5-5-5-5-5-5-5-5-5-5-5-5-5-5-5-5----|
G#|--10-10----10--9--9--7-7-----2--2-2--5-5-5-5-5-5-5-5-5-5-5-5-5-5-5-5----|
C#|--10-10----10--9--9--7-7-----2--2-2--5-5-5-5-5-5-5-5-5-5-5-5-5-5-5-5----|

    kizamu inochi no tsubasa de umarekawaru toki

D#|---------------------|
A#|---------------------|
F#|---------------------|
C#|---2-----------7-----|
G#|---2-----------7-----|
C#|---2-----------7-----|

    o machikogare te

Chorus 3:

D#|----------------------------------------------------------------------------|
A#|----------------------------------------------------------------------------|
F#|-----------------------7------------------------------------4--------7------|
C#|----5------------------7--------------------4---------------4----7---7------|
G#|----5------------------5--------------------4---------------2----4---5------|
C#|----5---------------------------------------4-------------------------------|


Don't cry kowaresou na hodo dakishimetara kimi ga furuete ita           Oh

D#|------------------------------------------------------------------|
A#|------------------------------------------------------------------|
F#|------------------------4----7---------------7---7-----7-----7-7--|
C#|----5-------------------4----7-----------------------5------------|
G#|----5-------------------2----5------------------------------------|
C#|----5-----------------------------------5-5----5---5-----5-5------|

    sotto kazasu tenohira ni    furete misete

D#|----------------------------------------------------------------------------|
A#|----------------------------------------------------------------------------|
F#|-----------------------7------------------------------------4--------7------|
C#|----5------------------7--------------------4---------------4----7---7------|
G#|----5------------------5--------------------4---------------2----4---5------|
C#|----5---------------------------------------4-------------------------------|

      kitto sagashi te i ta n da iroase nai kimi toiu na no kiseki

D#|---------------------------------------------------------|
A#|---------------------------------------------------------|
F#|------------------------4----7---------------------------|
C#|----5-------------------4----7----------5-5-5-5-5--5--5--|
G#|----5-------------------2----5----------5-5-5-5-5--5--5--|
C#|----5-----------------------------------5-5-5-5-5--5--5--|

     motto tsuyoku tenohira de boku ni fure te

D#|---------------------------------------------------------------------------|
A#|---------------------------------------------------------------------------|
F#|---------------------------------------------------------------------------|
C#---7-7-7-7-7--7--7----5-5-5-5-5--5--5---7-7-7-7-7-7-7-7-7-7-7-7-7-7-7-7--2--|
G#|--7-7-7-7-7--7--7----5-5-5-5-5--5--5---7-7-7-7-7-7-7-7-7-7-7-7-7-7-7-7--2--|
C#|--7-7-7-7-7--7--7----5-5-5-5-5--5--5---7-7-7-7-7-7-7-7-7-7-7-7-7-7-7-7--2--|

                                                           ever and never end


Outro:

D#|--------------------------------------------|
A#|--------------------------------------------|
F#|---4--4----7--7-----------------------------|
C#|---4--4----7--7----7----2--2---4--4---0--0--|  X2
G#|---2--2----5--5----7----2--2---4--4---0--0--|
C#|-------------------7----2--2---4--4---0--0--|

D#|------------------------------|
A#|------------------------------|
F#|---4--4-----4--4--------------|  Repeat until the song fades out
C#|---4--4-----4--4--------------|
G#|---2--2-----2--2--------------|
C#|------------------------------|





Comments


Popular Abingdon Boys School tabs & chords
Strength Bass Tabs
Desert Rose Tabs
Dress Tabs
Howling Tabs
Howling 1 Tabs
Kimi No Uta Tabs
Shiosai Tabs
Shiosai 2 Tabs
Strength 2 Tabs
Via Dolorosa Intro Tabs


Song lyrics



↑ Back to top | Tablatures and chords are parodies/interpretations of the original songs. You may use it for private study, scholarship, research or language learning purposes only
© 2014 AZChords.com Contact us | Privacy policy | DMCA | Add/correct tabs | Request tabs | Top 50 tabs