>
 >
Howling 1

Howling 1 Guitar Tabs

Abingdon Boys School - Howling 1 chords, tabs, tablatures, lyrics

Guitar lessons | Add/correct | Request | Top 50 tabs Artists:  A B C D E F G H I J K L M N O P Q R S T U V W X Y Z 0-9

Howling 1 Guitar Tabs – Abingdon Boys School

CD, Sheet music, Poster

Do you like Howling 1? Share with your friends now
TabsTabs v2

Tabs for the song: Howling by Abingdon Boys School
Please rate and let me know if you have any corrections. Thank you.

After looking around, I realized there was no proper tab for this song, so I 
decided to be the first! I hope you enjoy it, I worked pretty hard on it, 
and know it's super accurate.


Tuning: Drop A (A E A D F# B)


Intro
Guitar 1:
B ||---------|---------|---------|---------|---------|
F#||---------|---------|---------|---------|---------|
D ||---------|---------|---------|---------|---------|
A ||--7-9-9--|--7-9-9--|--7-5-5--|--5-3-3--|--7-9-9--|
E ||--7-9-9--|--7-9-9--|--7-5-5--|--5-3-3--|--7-9-9--|
A ||--7-9-9--|--7-9-9--|--7-5-5--|--5-3-3--|--7-9-9--|
      . . .     . . .     . . .     . . .     . . .

Guitar 2:
B ||-------7---7---7---7---5---5---5---5--|
F#||-------5---5---5---5---5---5---5---5--|
D ||-------5-xx5-xx5-xx5-xx5-xx5-xx5-xx5--|
A ||--------------------------------------| x2
E ||--------------------------------------|
A ||--------------------------------------|


B ||--7---7---7---7---7--|
F#||--5---5---5---5---5--|
D ||--5-xx5-xx5-xx5-xx5--|
A ||---------------------|
E ||---------------------|
A ||---------------------|


Guitar 1/2:
B ||--------------|
F#||--------------|
D ||--------------|
A ||--\pick---\---|
E ||---\--slide\--|
A ||--------------|



Main Riff
Guitar 1/2:
B ||----------------------------------------------------|---------------------|
F#||----------------------------------------------------|---------------------|
D ||----------------------------------------------------|---------------------|
A ||--0h2222-875~--0-7~----7/9---10p9---9---10p9---9----|--0h2222-875~--0-7~--|
E ||--0h2222-875~--0-7~----7/9---10p9---9---10p9---9----|--0h2222-875~--0-7~--|
A ||--0h2222-875~--0-7~----7/999-10p9-9-999-10p9-9-999--|--0h2222-875~--0-7~--|
                              ..      .  ..      .  ..

B ||----------------------|
F#||----------------------|
D ||----------------------|
A ||--5-------5\3--3--3---|
E ||--5-------5\3--3--3---|
A ||--555555555\33333333--|
       .......   .. .. .


Verse
Guitar 1/2:
B ||----------------------------------------------------|
F#||----------------------------------------------------|
D ||----------------------------------------------------|
A ||--0h2----875--0h7------7/9---10p9---9---10p9---9----|
E ||--0h2----875--0h7------7/9---10p9---9---10p9---9----|
A ||--0h2222-8755-0h777777-7/999-10p9-9-999-10p9-9-999--|
         ...    . .  .....    ..      .  ..      .  ..

B ||----------------------------------------|
F#||----------------------------------------|
D ||--------------------------------5~--7~--|
A ||--0h2----875--0h7-----7p5-------5~--7~--|
E ||--0h2----875--0h7-----7p5-------3~--5~--|
A ||--0h2222-8755-0h77777-7p5555555---------|
         ...    . .  ....    ......

B ||----------------------------------------------------|
F#||----------------------------------------------------|
D ||----------------------------------------------------|
A ||--0h2222-875~--0-7~----7/9---10p9---9---10p9---9----|
E ||--0h2222-875~--0-7~----7/9---10p9---9---10p9---9----|
A ||--0h2222-875~--0-7~----7/999-10p9-9-999-10p9-9-999--|
                              ..      .  ..      .  ..

B ||-------------------------------------------|
F#||-------------------------------------------|
D ||--------------------------------------2-4--|
A ||--0h2222-875~--0-7~----5------5\3--3--2-4--|
E ||--0h2222-875~--0-7~----5------5\3--3--0-2--|
A ||--0h2222-875~--0-7~----55555555\3-333------|
                            ......    . .


Pre-Chorus
Guitar 1/2:
B ||----------|-------------|--------2~-----|-------------|
F#||------3~--|------5~-----|-----------5~--|------5~-----|
D ||----------|---------7~--|---------------|---------7~--|
A ||--5~------|--7~---------|--0h2~---------|--7~---------|
E ||--3~------|--5~---------|--0h2~---------|--5~---------|
A ||----------|-------------|--0h2~---------|-------------|


B ||--------|------------------------------------------------|
F#||--------|------------------------------------------------|
D ||---5~---|--4----4----4---2--------2~---4-4-----4~--------|
A ||---5~---|--4----4----4---2--------2~---4-4-----4~--\--\--|
E ||---3~---|--2-22-2-22-2-2-0-000000-0~---2-2-222-2~--\--\--|
A ||--------|------------------------------------------------|
                 ..   ..   .   ......          ...



Chorus
Guitar 1:
B ||-------------------------------------------------------|
F#||-------------------------------------------------------|
D ||--55555555-161616-141414-16----------161616-141414-16--|
A ||--55555555-x-x-x--x-x-x--x--55555555-x-x-x--x-x-x--x---|
E ||--33333333-141414-121212-14-55555555-141414-121212-14--|
A ||----------------------------55555555-------------------|


Guitar 2:
B ||-------------------------------------------------------|
F#||-------------------------------------------------------|
D ||--55555555-121212-111111-12----------121212-111111-12--|
A ||--55555555-x-x-x--x-x-x--x--55555555-x-x-x--x-x-x--x---|
E ||--33333333-101010-9-9-9--10-55555555-101010-9-9-9--10--|
A ||----------------------------55555555-------------------|


Guitar 1/2:
B ||-------------------------------------------------|
F#||-------------------------------------------------|
D ||--55555555-77777777--4---5---7-------------------|
A ||--55555555-77777777--4---5---7----9~--\-\-\-\-\--|
E ||--33333333-55555555--222-333-555--9~--\-\-\-\-\--|
A ||----------------------------------9~--\-\-\-\-\--|
                          ..  ..  ..


Guitar 1:
B ||-------------------------------------------------------|
F#||-------------------------------------------------------|
D ||--55555555-161616-141414-16----------161616-141414-16--|
A ||--55555555-x-x-x--x-x-x--x--22222222-x-x-x--x-x-x--x---|
E ||--33333333-141414-121212-14-22222222-141414-121212-14--|
A ||----------------------------22222222-------------------|


Guitar 2:
B ||-------------------------------------------------------|
F#||-------------------------------------------------------|
D ||--55555555-121212-111111-12----------121212-111111-12--|
A ||--55555555-x-x-x--x-x-x--x--22222222-x-x-x--x-x-x--x---|
E ||--33333333-101010-9-9-9--10-22222222-101010-9-9-9--10--|
A ||----------------------------22222222-------------------|



Guitar 1:
B ||--------------------------------------------------------------|
F#||----------------------------------------------------12----12--|
D ||--777-99999-111111-1212121212-1414141414141414---12----11-----|
A ||--xxx-xxxxx-x-x-x--x-x-x-x-x--x-x-x-x-x-x-x-x-----------------|
E ||--555-77777-9-9-9--1010101010-1212121212121212----------------|
A ||--------------------------------------------------------------|


Guitar 2:
B ||------------------------------------------------|
F#||------------------------------------------------|
D ||--444-55555-777-99999-1010101010101010------4~--|
A ||--xxx-xxxxx-xxx-xxxxx-x-x-x-x-x-x-x-x---0~--4~--|
E ||--222-33333-555-77777-8-8-8-8-8-8-8-8---0~--2~--|
A ||----------------------------------------0~------|



Pre-Verse
Guitar 1/2:
B ||-------------------------------------------|----------------|
F#||-------------------------------------------|----------------|
D ||--55-----77--------------777----------777--|--55--------7~--|
A ||--55-----77-----22---5---777-22---5---777--|--55--------7~--|
E ||--33-----55-----22---5---555-22---5---555--|--33--------5~--|
A ||----------------22---5-------22---5--------|----------------|


Guitar 1:
B ||---------|
F#||---------|
D ||---------|
A ||--7-9-9--|
E ||--7-9-9--|
A ||--7-9-9--|
      . . .

Guitar 2:
B ||-------7---7---7--|
F#||-------5---5---5--|
D ||-------5-xx5-xx5--|
A ||------------------|
E ||------------------|
A ||------------------|



Verse
Guitar 1/2:
B ||----------------------------------------------------|
F#||----------------------------------------------------|
D ||----------------------------------------------------|
A ||--0h2----875--0h7------7/9---10p9---9---10p9---9----|
E ||--0h2----875--0h7------7/9---10p9---9---10p9---9----|
A ||--0h2222-8755-0h777777-7/999-10p9-9-999-10p9-9-999--|
         ...    . .  .....    ..      .  ..      .  ..

B ||----------------------------------------|
F#||----------------------------------------|
D ||--------------------------------5~--7~--|
A ||--0h2----875--0h7-----7p5-------5~--7~--|
E ||--0h2----875--0h7-----7p5-------3~--5~--|
A ||--0h2222-8755-0h77777-7p5555555---------|
         ...    . .  ....    ......

B ||----------------------------------------------------|
F#||----------------------------------------------------|
D ||----------------------------------------------------|
A ||--0h2222-875~--0-7~----7/9---10p9---9---10p9---9----|
E ||--0h2222-875~--0-7~----7/9---10p9---9---10p9---9----|
A ||--0h2222-875~--0-7~----7/999-10p9-9-999-10p9-9-999--|
                              ..      .  ..      .  ..

B ||-------------------------------------------|
F#||-------------------------------------------|
D ||--------------------------------------2-4--|
A ||--0h2222-875~--0-7~----5------5\3--3--2-4--|
E ||--0h2222-875~--0-7~----5------5\3--3--0-2--|
A ||--0h2222-875~--0-7~----55555555\3-333------|
                            ......    . .


Pre-Chorus
Guitar 1/2:
B ||----------|-------------|--------2~-----|-------------|
F#||------3~--|------5~-----|-----------5~--|------5~-----|
D ||----------|---------7~--|---------------|---------7~--|
A ||--5~------|--7~---------|--0h2~---------|--7~---------|
E ||--3~------|--5~---------|--0h2~---------|--5~---------|
A ||----------|-------------|--0h2~---------|-------------|


B ||--------|--------------------------------------------------------|
F#||--------|--------------------------------------------------------|
D ||---5~---|--4----4----4---2--------2~---4-4-----4~----------------|
A ||---5~---|--4----4----4---2--------2~---4-4-----4~--\--\----------|
E ||---3~---|--2-22-2-22-2-2-0-000000-0~---2-2-222-2~--\--\---5b(7)--|
A ||--------|--------------------------------------------------------|
                 ..   ..   .   ......          ...



Chorus
Guitar 1:
B ||-------------------------------------------------------|
F#||-------------------------------------------------------|
D ||--55555555-161616-141414-16----------161616-141414-16--|
A ||--55555555-x-x-x--x-x-x--x--55555555-x-x-x--x-x-x--x---|
E ||--33333333-141414-121212-14-55555555-141414-121212-14--|
A ||----------------------------55555555-------------------|


Guitar 2:
B ||-------------------------------------------------------|
F#||-------------------------------------------------------|
D ||--55555555-121212-111111-12----------121212-111111-12--|
A ||--55555555-x-x-x--x-x-x--x--55555555-x-x-x--x-x-x--x---|
E ||--33333333-101010-9-9-9--10-55555555-101010-9-9-9--10--|
A ||----------------------------55555555-------------------|


Guitar 1/2:
B ||-------------------------------------------------|
F#||-------------------------------------------------|
D ||--55555555-77777777--4---5---7-------------------|
A ||--55555555-77777777--4---5---7----9~--\-\-\-\-\--|
E ||--33333333-55555555--222-333-555--9~--\-\-\-\-\--|
A ||----------------------------------9~--\-\-\-\-\--|
                          ..  ..  ..


Guitar 1:
B ||-------------------------------------------------------|
F#||-------------------------------------------------------|
D ||--55555555-161616-141414-16----------161616-141414-16--|
A ||--55555555-x-x-x--x-x-x--x--22222222-x-x-x--x-x-x--x---|
E ||--33333333-141414-121212-14-22222222-141414-121212-14--|
A ||----------------------------22222222-------------------|


Guitar 2:
B ||-------------------------------------------------------|
F#||-------------------------------------------------------|
D ||--55555555-121212-111111-12----------121212-111111-12--|
A ||--55555555-x-x-x--x-x-x--x--22222222-x-x-x--x-x-x--x---|
E ||--33333333-101010-9-9-9--10-22222222-101010-9-9-9--10--|
A ||----------------------------22222222-------------------|



Guitar 1:
B ||--------------------------------------------------------------|
F#||----------------------------------------------------12----12--|
D ||--777-99999-111111-1212121212-1414141414141414---12----11-----|
A ||--xxx-xxxxx-x-x-x--x-x-x-x-x--x-x-x-x-x-x-x-x-----------------|
E ||--555-77777-9-9-9--1010101010-1212121212121212----------------|
A ||--------------------------------------------------------------|


Guitar 2:
B ||------------------------------------------------|
F#||------------------------------------------------|
D ||--444-55555-777-99999-1010101010101010------4~--|
A ||--xxx-xxxxx-xxx-xxxxx-x-x-x-x-x-x-x-x---0~--4~--|
E ||--222-33333-555-77777-8-8-8-8-8-8-8-8---0~--2~--|
A ||----------------------------------------0~------|



Breakdown
Guitar 1/2:                        (2)
B ||------------------------------------|
F#||------------------------------------|
D ||------------------------------------|
A ||--------------------------------3~--|
E ||--------------------------------3~--|
A ||--222-222--2--222-2222--22--2--23~--|
      ... ...  .  ... ....  ..  .  .


Guitar 2:
B ||-----------------------------|
F#||-----------------------------|
D ||-----------------------------|
A ||-----------------------------|
E ||--222-222--2--222-2222--222--|
A ||--222-222--2--222-2222--222--|
      ... ...  .  ... ....  ...


Guitar 1:
B ||-------------------------|
F#||----12h13p12-------------|
D ||--9----------9-----------|
A ||---------------12p10-----|
E ||---------------------12--|
A ||-------------------------|

      T  T   T  T   T  T T  T   T     T    T T  T   T  T   T  T T  T
B ||--------------------------------------------------------------------|
F#||--------------------------------------------------------------------|
D ||----------------14-7--------14\13-7h10-----------------14-7---------|
A ||---------------------14-7h9------------9--------------------14-7h9--|
E ||---------14-7h8---------------------------------14-7h8--------------|
A ||--14-7h9---------------------------------14-7h9---------------------|


Guitar 2:
B ||------------------------------------|
F#||------------------------------------|
D ||------------------------------------|
A ||--------------------------------3~--|
E ||--222-222--2--222-2222--22--2--23~--|
A ||--222-222--2--222-2222--22--2--23~--|
      ... ...  .  ... ....  ..  .  .


Guitar 1:
      T  T   T  T   T  T T  T   T     T    T T  T   T  T
B ||--------------------------------------------------------|
F#||--------------------------------------------------------|
D ||----------------14-7--------14\13-7h10------------------|
A ||---------------------14-7h9------------9----------------|
E ||---------14-7h8---------------------------------14-7h8--|
A ||--14-7h9---------------------------------14-7h9---------|



Guitar 2:
B ||-----------------------------|
F#||-----------------------------|
D ||-----------------------------|
A ||-----------------------------|
E ||--222-222--2--222-2222--222--|
A ||--222-222--2--222-2222--222--|
      ... ...  .  ... ....  ...


Solo
Guitar 1:
B ||--16r15--------17b19~----17--15--14--12-15p14p12-----------------------------------|
F#||-------------------------------------------------15-13p12h13p12--------------------|
D ||--------13b16---------------------------------------------------14p13h14p1314/16~--|
A ||-----------------------------------------------------------------------------------|
E ||-----------------------------------------------------------------------------------|
A ||-----------------------------------------------------------------------------------|


B ||-----------------------------------------|
F#||-----------------------------------------|
D ||--14--13---------------------------------|
A ||----------15-14-12-----------------------|
E ||-------------------15-14-12\11~--12p11~--|
A ||-----------------------------------------|
              .  .  .  .  .  .

B ||--------------------------------------------------------|
F#||--------------------------------------------------------|
D ||------------------------------------------12--14~---12--|
A ||-----------------------12~-------12-14-16---------------|
E ||--11-12-14-15--14--15---------15------------------------|
A ||--------------------------------------------------------|


B ||---------12--------------12--------------14--------16-------17-------18---------|
F#||--15b17-----15-12-15b17-----15-12-17b19-----19b21-----20b22----21b13----22b24~--|
D ||--------------------------------------------------------------------------------|
A ||--------------------------------------------------------------------------------|
E ||--------------------------------------------------------------------------------|
A ||--------------------------------------------------------------------------------|


B ||---------------------------------------------------------------------------|
F#||--\20-19-17--------------------19h20~---19-17------------------------------|
D ||------------19-18-16--------------------------19-18-16---------------------|
A ||---------------------19-18-16----------------------------------------------|
E ||-------------------------------------------------------19-18-16------------|
A ||----------------------------------------------------------------19-18-16\--|


B ||-------19~------------------------------------------------------|
F#||--/21~-------20-19-17--------------------*0h19~---19h20p19-17~--|
D ||----------------------19-18-16----------------------------------|
A ||-------------------------------19-18-16-------------------------|
E ||----------------------------------------------------------------|
A ||----------------------------------------------------------------|


Guitar 2:
B ||-----------------------------------------------|
F#||-----------------------------------------------|
D ||--5~----7~-------------------------------------|
A ||--5~----7~-------------------------------------| x2
E ||--3~----5~----222-222--2--222-2222--22--2--22--|
A ||--------------222-222--2--222-2222--22--2--22--|
                  ... ...  .  ... ....  ..  .  ..

B ||------------------------|
F#||------------------------|
D ||--5~----7~----------7~--|
A ||--5~----7~----2~----7~--|
E ||--3~----5~----2~----5~--|
A ||--------------2~--------|



Bridge
Guitar 1/2:
B ||-----------------------------------|
F#||-----------------------------------|
D ||------------------4----5----7~-77--|
A ||--7~---5~---3~----4----5----7~-77--|
E ||--7~---5~---3~----2----3----5~-55--|
A ||--7~---5~---3~---------------------|



Chorus
Guitar 1:
B ||-------------------------------------------------------|
F#||-------------------------------------------------------|
D ||--55555555-161616-141414-16----------161616-141414-16--|
A ||--55555555-x-x-x--x-x-x--x--55555555-x-x-x--x-x-x--x---|
E ||--33333333-141414-121212-14-55555555-141414-121212-14--|
A ||----------------------------55555555-------------------|


Guitar 2:
B ||-------------------------------------------------------|
F#||-------------------------------------------------------|
D ||--55555555-121212-111111-12----------121212-111111-12--|
A ||--55555555-x-x-x--x-x-x--x--55555555-x-x-x--x-x-x--x---|
E ||--33333333-101010-9-9-9--10-55555555-101010-9-9-9--10--|
A ||----------------------------55555555-------------------|


Guitar 1/2:
B ||-------------------------------------------------|
F#||-------------------------------------------------|
D ||--55555555-77777777--4---5---7-------------------|
A ||--55555555-77777777--4---5---7----9~--\-\-\-\-\--|
E ||--33333333-55555555--222-333-555--9~--\-\-\-\-\--|
A ||----------------------------------9~--\-\-\-\-\--|
                          ..  ..  ..


Guitar 1:
B ||-------------------------------------------------------|
F#||-------------------------------------------------------|
D ||--55555555-161616-141414-16----------161616-141414-16--|
A ||--55555555-x-x-x--x-x-x--x--22222222-x-x-x--x-x-x--x---|
E ||--33333333-141414-121212-14-22222222-141414-121212-14--|
A ||----------------------------22222222-------------------|


Guitar 2:
B ||-------------------------------------------------------|
F#||-------------------------------------------------------|
D ||--55555555-121212-111111-12----------121212-111111-12--|
A ||--55555555-x-x-x--x-x-x--x--22222222-x-x-x--x-x-x--x---|
E ||--33333333-101010-9-9-9--10-22222222-101010-9-9-9--10--|
A ||----------------------------22222222-------------------|



Guitar 1:
B ||--------------------------------------------------------------|
F#||----------------------------------------------------12----12--|
D ||--777-99999-111111-1212121212-1414141414141414---12----11-----|
A ||--xxx-xxxxx-x-x-x--x-x-x-x-x--x-x-x-x-x-x-x-x-----------------|
E ||--555-77777-9-9-9--1010101010-1212121212121212----------------|
A ||--------------------------------------------------------------|


Guitar 2:
B ||------------------------------------------------|
F#||------------------------------------------------|
D ||--444-55555-777-99999-1010101010101010------4~--|
A ||--xxx-xxxxx-xxx-xxxxx-x-x-x-x-x-x-x-x---0~--4~--|
E ||--222-33333-555-77777-8-8-8-8-8-8-8-8---0~--2~--|
A ||----------------------------------------0~------|



Pre-Verse
Guitar 1/2:
B ||-------------------------------------------|--------------------------------------------------|
F#||-------------------------------------------|--------------------------------------------------|
D ||--55-----77--------------777----------777--|--55-----77---------------------------------------|
A ||--55-----77-----22---5---777-22---5---777--|--55-----77-----22---5---12-12~--12-11-10-9-8-7~--|
E ||--33-----55-----22---5---555-22---5---555--|--33-----55-----22---5---12-12~--12-11-10-9-8-7~--|
A ||----------------22---5-------22---5--------|----------------22---5---12-12~--12-11-10-9-8-7~--|


B ||-------------------------------------------|----------------|
F#||-------------------------------------------|----------------|
D ||--55-----77--------------777----------777--|--55--------7~--|
A ||--55-----77-----22---5---777-22---5---777--|--55--------7~--|
E ||--33-----55-----22---5---555-22---5---555--|--33--------5~--|
A ||----------------22---5-------22---5--------|----------------|



Main Riff
Guitar 1/2:
B ||----------------------------------------------------|---------------------|
F#||----------------------------------------------------|---------------------|
D ||----------------------------------------------------|---------------------|
A ||--0h2222-875~--0-7~----7/9---10p9---9---10p9---9----|--0h2222-875~--0-7~--|
E ||--0h2222-875~--0-7~----7/9---10p9---9---10p9---9----|--0h2222-875~--0-7~--|
A ||--0h2222-875~--0-7~----7/999-10p9-9-999-10p9-9-999--|--0h2222-875~--0-7~--|
                              ..      .  ..      .  ..

B ||----------------------|
F#||----------------------|
D ||----------------------|
A ||--5-------5\3--3--3---|
E ||--5-------5\3--3--3---|
A ||--555555555\33333333--|
       .......   .. .. .


Outro
Guitar 1/2:
B ||------------------|
F#||------------------|
D ||------------------|
A ||--0h2~--2~--875~--|
E ||--0h2~--2~--875~--|
A ||--0h2~--2~--875~--|


Guitar 1:
      T  T   T  T   T  T T  T   T     T    T
B ||------------------------------------------|
F#||------------------------------------------|
D ||----------------14-7--------14\13-7h10----|
A ||---------------------14-7h9------------9--| x3
E ||---------14-7h8---------------------------|
A ||--14-7h9----------------------------------|


      T  T   T  T   T  T T  T
B ||---------------------------|
F#||---------------------------|
D ||----------------14-7-------|
A ||---------------------14-7--|
E ||---------14-7h8------------|
A ||--14-7h9-------------------|


Guitar 2:
B ||------------------------------------|
F#||------------------------------------|
D ||------------------------------------|
A ||--------------------------------3~--|
E ||--222-222--2--222-2222--22--2--23~--|
A ||--222-222--2--222-2222--22--2--23~--|
      ... ...  .  ... ....  ..  .  .




Tablature Legend
----------------
 h   - hammer-on
 p   - pull-off
 b   - bend
 r   - release bend
 T   - tap
 *   - pinch harmonic
 '   - natural harmonic
 x   - mute note
 .   - palm mute
 /   - slide down
 \   - slide up





Comments


Popular Abingdon Boys School tabs & chords
Strength Bass Tabs
Desert Rose Tabs
Howling Tabs
Innocent Sorrow Tabs
Kimi No Uta Tabs
Shiosai Tabs
Shiosai 2 Tabs
Strength Tabs
Strength 3 Tabs
Via Dolorosa Intro Tabs


Song lyrics



↑ Back to top | Tablatures and chords are parodies/interpretations of the original songs. You may use it for private study, scholarship, research or language learning purposes only
© 2014 AZChords.com Contact us | Privacy policy | DMCA | Add/correct tabs | Request tabs | Top 50 tabs