» » »

Abingdon Boys School, Dress Tabs (ver.1)

Artists:  A B C D E F G H I J K L M N O P Q R S T U V W X Y Z # 

Dress Tabs (ver.1)

Abingdon Boys School Tabs
 Rating:
4.3/5 (6 votes)
Dress lessons Tabs too difficult? Try these video lessons and learn fast
                This is me playing the song using this tableture:

band:  abingdon boys school
track: 11

tunning: thin string to fat string, E B G D A D (dropped d)


/ : ascending slide, the number before the / means where you start the slide, and the 
after where you finish the slide
\ : descending slide, the number before the \ means where you start the slide, and the 
after where you finish the slide
pm: palm mute, place the side of the picking hand below the little finger across all of 
strings very close to the bridge lightely to get the muted effect

E|--------------------------------------------------------------------------|
B|--------------------------------------------------------------------------|
G|--------------------------------------------------------------------------|
D|21\1/9---11---0---2---4---5---7-------9-------0-------7-------2---4---9---|
A|21\1/9---11---0---2---4---5---7-------9-------0-------7-------2---4---9---|
D|21\1/9---11---0---2---4---5---7-------9-------0-------7-------2---4---9---|


E|--------------------------------------------------------------------------|
B|--------------------------------------------------------------------------|
G|--------------------------------------------------------------------------|
D|--------------------------------------------------------------------------|
A|--------------------------------------------------------------------------|
D|--------------------------------------------------------------------------|


E|--------------------------------------------------------------------------|
B|--------------------------------------------------------------------------|
G|--------------------------------------------------------------------------|
D|9-9---XX9-9--X-X--X9-9---XX9-9---7-7---XX7-7--X-X--X7-7---XX7-7-----------|
A|9-9---XX9-9--X-X--X9-9---XX9-9---7-7---XX7-7--X-X--X7-7---XX7-7-----------|
D|9-9---XX9-9--X-X--X9-9---XX9-9---7-7---XX7-7--X-X--X7-7---XX7-7-----------|


E|--------------------------------------------------------------------------|
B|--------------------------------------------------------------------------|
G|--------------------------------------------------------------------------|
D|5-5---XX5-5--X-X--X5-5---XX5-5---7-7---XX7-7--X-X--X7-7---XX7-7-----------|
A|5-5---XX5-5--X-X--X5-5---XX5-5---7-7---XX7-7--X-X--X7-7---XX7-7-----------|
D|5-5---XX5-5--X-X--X5-5---XX5-5---7-7---XX7-7--X-X--X7-7---XX7-7-----------|


E|--------------------------------------------------------------------------|
B|--------------------------------------------------------------------------|
G|--------------------------------------------------------------------------|
D|9-9---XX9-9--X-X--X9-9---XX9-9---7-7---XX7-7--X-X--X7-7---XX7-7-----------|
A|9-9---XX9-9--X-X--X9-9---XX9-9---7-7---XX7-7--X-X--X7-7---XX7-7-----------|
D|9-9---XX9-9--X-X--X9-9---XX9-9---7-7---XX7-7--X-X--X7-7---XX7-7-----------|


E|--------------------------------------------------------------------------|
B|--------------------------------------------------------------------------|
G|--------------------------------------------------------------------------|
D|5-5---XX5-5--X-X--X5-5---XX5-5---7-7---XX7-7--X-X--X7-7---XX7-7-----------|
A|5-5---XX5-5--X-X--X5-5---XX5-5---7-7---XX7-7--X-X--X7-7---XX7-7-----------|
D|5-5---XX5-5--X-X--X5-5---XX5-5---7-7---XX7-7--X-X--X7-7---XX7-7-----------|


E|--------------------------------------------------------------------------|
B|--------------------------------------------------------------------------|
G|--------------------------------------------------------------------------|
D|5------------------------4-----------------5---------------------7--------|
A|5-------XX3/5--4--9--5---4-------9--7--4---5-------XX5/7--5--9---7--------|
D|5------------------------4-----------------5---------------------7--------|


E|--------------------------------------------------------------------------|
B|--------------------------------------------------------------------------|
G|--------------------------------------------------------------------------|
D|34---9---11---0---2---4---5---7-------9-------0-------7-------2---4-------|
A|34---9---11---0---2---4---5---7-------9-------0-------7-------2---4-------|
D|34---9---11---0---2---4---5---7-------9-------0-------7-------2---4-------|


E|--------------------------------------------------------------------------|
B|--------------------------------------------------------------------------|
G|--------------------------------------------------------------------------|
D|9---11---0---2---4---5---7-------9-------0-------7-------2---4------------|
A|9---11---0---2---4---5---7-------9-------0-------7-------2---4------------|
D|9---11---0---2---4---5---7-------9-------0-------7-------2---4------------|

  pm-mute-the-A-string-only--------------------------------------------------|
E|---------------------------------------------------------------------------|
B|---------------------------------------------------------------------------|
G|----2-----2----------2-----2----------2-----2----------2-------------------|
D|-4-----4-----2----4-----4-----2----4-----4-----2----4-----4----------------|
A|0--0--0--0--0----0--0--0--0--0----0--0--0--0--0----0--0--0-----------------|
D|---------------------------------------------------------------------------|


E|--------------------------------------------------------------------------|
B|--------------------------------------------------------------------------|
G|--------------------------------------------------------------------------|
D|9-9---9999---9999---9999---9-9---7-7---7777---7777---7777---7-7-----------|
A|9-9---9999---9999---9999---9-9---7-7---7777---7777---7777---7-7-----------|
D|9-9---9999---9999---9999---9-9---7-7---7777---7777---7777---7-7-----------|


E|--------------------------------------------------------------------------|
B|--------------------------------------------------------------------------|
G|--------------------------------------------------------------------------|
D|5-5---5555---5555---5555---5-5---7-7---7777---7777---7777---7-7-----------|
A|5-5---5555---5555---5555---5-5---7-7---7777---7777---7777---7-7-----------|
D|5-5---5555---5555---5555---5-5---7-7---7777---7777---7777---7-7-----------|


E|--------------------------------------------------------------------------|
B|--------------------------------------------------------------------------|
G|--------------------------------------------------------------------------|
D|9-9---9999---9999---9999---9-9---7-7---7777---7777---7777---7-7-----------|
A|9-9---9999---9999---9999---9-9---7-7---7777---7777---7777---7-7-----------|
D|9-9---9999---9999---9999---9-9---7-7---7777---7777---7777---7-7-----------|


E|--------------------------------------------------------------------------|
B|--------------------------------------------------------------------------|
G|--------------------------------------------------------------------------|
D|5-5---5555---5555---5555---5-5---7-7---7777---7777---7777---7-7-----------|
A|5-5---5555---5555---5555---5-5---7-7---7777---7777---7777---7-7-----------|
D|5-5---5555---5555---5555---5-5---7-7---7777---7777---7777---7-7-----------|


E|--------------------------------------------------------------------------|
B|--------------------------------------------------------------------------|
G|--------------------------------------------------------------------------|
D|5------------------------4-----------------5---------------------7--------|
A|5-------XX3/5--4--9--5---4-------9--7--4---5-------XX5/7--5--9---7--------|
D|5------------------------4-----------------5---------------------7--------|


E|--------------------------------------------------------------------------|
B|--------------------------------------------------------------------------|
G|--------------------------------------------------------------------------|
D|5------------------------4------------------------------------------------|
A|5-------XX3/5--4--9--5---4-------9--7--4----------------------------------|
D|5------------------------4------------------------------------------------|


E|--------------------------------------------------------------------------|
B|--------------------------------------------------------------------------|
G|--------------------------------------------------------------------------|
D|34---9---11---0---2---4---5---7-------9-------0-------7-------2---4-------|
A|34---9---11---0---2---4---5---7-------9-------0-------7-------2---4-------|
D|34---9---11---0---2---4---5---7-------9-------0-------7-------2---4-------|


E|--------------------------------------------------------------------------|
B|--------------------------------------------------------------------------|
G|--------------------------------------------------------------------------|
D|9---11---0---2---4---5---7-------9-------0-------7-------2---4------------|
A|9---11---0---2---4---5---7-------9-------0-------7-------2---4------------|
D|9---11---0---2---4---5---7-------9-------0-------7-------2---4------------|


E|--------------------------------------------------------------------------|
B|--------------------------------------------------------------------------|
G|--------------------------------------------------------------------------|
D|9---11---0---2---4---5---7-------9-------0-------7-------2---4------------|
A|9---11---0---2---4---5---7-------9-------0-------7-------2---4------------|
D|9---11---0---2---4---5---7-------9-------0-------7-------2---4------------|


E|--------------------------------------------------------------------------|
B|--------------------------------------------------------------------------|
G|--------------------------------------------------------------------------|
D|9---11---0---2---4---5---7-------9-------0-------7-------2---4------------|
A|9---11---0---2---4---5---7-------9-------0-------7-------2---4------------|
D|9---11---0---2---4---5---7-------9-------0-------7-------2---4------------|

E|--------------------------------------------------------------------------|
B|--------------------------------------------------------------------------|
G|--------------------------------------------------------------------------|
D|--------------------------------------------------------------------------|
A|2255445522554455225544552255445522554455----------------------------------|
D|--------------------------------------------------------------------------|


E|--------------------------------------------------------------------------|
B|--------------------------------------------------------------------------|
G|--------------------------------------------------------------------------|
D|--------------------------------------------------------------------------|
A|2255445522554455225544552255445522554455----------------------------------|
D|--------------------------------------------------------------------------|


E|---------------------------------------------------------------------------|
B|---------------------------------------------------------------------------|
G|---------------------------------------------------------------------------|
D|---------------------------------------------------------------------------|
A|225544552255445522554455225544552255445577554455---------------------------|
D|---------------------------------------------------------------------------|

  pm-mute-the-a-string-only--------------------------------------------------|
E|---------------------------------------------------------------------------|
B|---------------------------------------------------------------------------|
G|----2-----2----------2-----2----------2-----2----------2-----2--2222-------|
D|-4-----4-----2----4-----4-----2----4-----4-----2----4-----4----------------|
A|0--0--0--0--0----0--0--0--0--0----0--0--0--0--0----0--0--0--0--------------|
D|---------------------------------------------------------------------------|

  pm-mute-the-a-string-only--------------------------------------------------|
E|---------------------------------------------------------------------------|
B|---------------------------------------------------------------------------|
G|----2-----2----------2-----2----------2-----2----------2-----2-------------|
D|-4-----4-----2----4-----4-----2----4-----4-----2----4-----4----------------|
A|0--0--0--0--0----0--0--0--0--0----0--0--0--0--0----0--0--0--0--------------|
D|---------------------------------------------------------------------------|
            
Submit corrections

comments powered by Disqus
↑ Back to top | Abingdon Boys School Tabs for Dress. Lyrics for acoustic guitar and electric guitar. Tablatures and chords are parodies/interpretations of the original songs. You may use it for private study, scholarship, research or language learning purposes only