» » »

Utopia Consumed Tabs (ver.1)

Artists:  A B C D E F G H I J K L M N O P Q R S T U V W X Y Z # 

Utopia Consumed Tabs (ver.1)

Abigor
Rating:
0/5 (0 votes)

Hard to play? Try these video lessons and learn fast.
                ABIGOR - ‘Utopia Consumed’ from ‘Channeling The Quintessence Of Satan’ (NAPALM RECORDS) NPR062 / 1999 C+R ABIGOR/NPR

|------------------------|-------------------------|----------------------|
|------------------------|-------------------------|----------------------|
|----9-10-9--------------|-----9-10-9--------------|----4-5-4-------------|
|-----------9-10-9-5-6-5-|------------9-10-9-5-6-5-|---------4-5-4-1-2-1--|
|--7---------------------|--7----------------------|--2-------------------|
|0-----------------------|0------------------------|0---------------------|
|
|------------------------|
|------------------------|
|----4-5-4---------------|
|-----------4-5-4-1-2-1--|
|--2---------------------|
|0-----------------------|Riff 1

|-----------------------|
|-----------------------|
|3-----------3----------|
|--4-----3-2---4-----4--|
|----5-4---------5-5-2--|
|------------------3-2--|Riff 2

|-------|---------------|
|-------|---------------|
|-------|---------------|
|9-10-7-|--------9-10-7-|
|7-8--5-|-/-2----7-8--5-|
|7-8--5-|-/-0----7-8--5-|Part 1

|5------------5---|6-----------6-|5-----------6---|4-----------4-|
|--6-------6----6-|--7-------7---|--6-------6---5-|--5-------5---|
|----7---7--------|----8---8-----|----7---7-------|----6---6-----|
|------7----------|------8-------|------7---------|------6-------|
|-----------------|--------------|----------------|--------------|
|-----------------|--------------|----------------|--------------|Riff 3

|----------------|-------------|
|--7-9-10-9------|--7---5-4----|
|6----------10-9-|6---------5--|
|----------------|-------------|
|----------------|-------------|
|----------------|-------------|Riff 4

|-----------------------|----------------------------------|
|-----------------------|----------------------------------|
|---------------------8-|----------------------------------|
|---------------2-7-8---|--------------2-7-8-7-5-6-5-3-4-3-|
|---------7-8-2---------|--------7-8-2---------------------|
|--1-7-0----------------|--1-7-0---------------------------|Riff 5
 H    P                   H   P           H P   H P   H P

|1-----7-6---|1-----5-7--7-6-12--|
|3-----9-8---|3-----7-6--9-8-11--|
|2-2-2-8-7---|2-2-2-6-5--8-7-10--|
|------------|-------------------|
|------------|-------------------|
|------------|-------------------|Riff 6
   x x          x x
|7----7-----------------10--9----|7---7------------------10--9----|
|9------9-----9-----12------11---|9------9-----9-----12------11---|
|8---------8----11----------10---|8---------8-----11---------10---|
|--------------------------------|--------------------------------|
|--------------------------------|--------------------------------|
|--------------------------------|--------------------------------|
|5---5---------------4--3--|5---5-----------------4--3--|
|7------7----7----6-----5--|7------7-----7-----6-----5--|
|6--------6-----5-------4--|6---------6-----5--------4--|
|--------------------------|----------------------------|
|--------------------------|----------------------------|
|--------------------------|----------------------------|Riff 7

|7-/-3---7-/-3--|8--7-7---3-8-5--|
|9-/-5---9-/-5--|10-9-8---5-4-7--|
|8-/-4---8-/-4--|9--8-6---4-3-6--|
|---------------|----------------|
|---------------|----------------|
|---------------|----------------|Riff 8


Songstructure:

Riff 1	2x
E
Riff 2	4x
Part 1	4x
Riff 1	4x
E
Riff 2	4x
Part 1	4x
E
Riff 3	2x
Riff 4	4x
Riff 3	2x
Riff 5 	6x
Riff 6	4x
Riff 7	2x
Riff 8	4x
            
Hard to play? Try these video lessons and learn fast. | Correct




comments powered by Disqus
↑ Back to top | Tablatures and chords are parodies/interpretations of the original songs. You may use it for private study, scholarship, research or language learning purposes only