» » »

Abigor, The Spirit Of Venus Tabs (ver.1)

Artists:  A B C D E F G H I J K L M N O P Q R S T U V W X Y Z # 

The Spirit Of Venus Tabs (ver.1)

Abigor Tabs
 Rating:
4/5 (4 votes)
The Spirit Of Venus lessons Tabs too difficult? Try these video lessons and learn fast
1
                Version 1.0
Abigor - The Spirit Of Venus (from Supreme Immortal Art)

|-------------|-------------|----------------|--------------|RIFF I
|-------------|-------------|----------------|--------------|
|--9---9--9---|--4---4--4---|9-------10--9---|4------5--4---|
|-7---7---7---|-2---2---2---|-7----10----9---|-2----5---2---|
|0---8----7---|0---3----2---|--8--8------7---|--3--3----2---|
|-------------|-------------|----------------|--------------|

|----------|PART I
|----------|
|----/-9---|
|4-3-/-8---|
|2-2-------|
|----------|

|------------|---------------|RIFF II
|------------|---------------|
|9-----------|--4-5-4--------|
|-7----7-----|-2-----2-5-4---|
|--8-0-------|3--------------|
|------------|---------------|

|----------------------------------|PART II
|----------------------------------|
|----H-P--10--H-P----H-P----H-P----|
|2--7-8-7----5-6-5--4-5-4--3-4-3---|
|0---------------------------------|
|----------------------------------|

|--------------|------------| RIFF III
|--------------|------------|
|--------------|------------|
|---9-8-10-9---|--8-7-9-8---|
|7-------------|6-----------|
|--------------|------------|

|--------------|--------------|RIFF IV
|--------------|--------------|
|--------------|--------------|
|9--8--9--6----|5--2--7--3----|
|7--7--7--6----|3--2--7--3----|
|--------------|--------------|

|--------------|--------------|RIFF V
|--------------|--------------|
|--------------|--------------|
|--------9/10--|--------10/9--|
|7-------7/8---|7-------8-/7--|
|0-0-0-0-------|0-0-0-0-------|
   x x x          x x x
|-------------------------|-----------------------------|RIFF VI
|-------------------------|-----------------------------|
|-------------------------|------------------------7----|
|9--10--9--5--4--5--7--4--|9--10--9--5--4--5-----7---7--|
|7--8---7--3--2--3--5--2--|7--8---7--3--2--3--5---------|
|-------------------------|-----------------------------|

|---|---|---|---|---|---|---|----|RIFF VII
|---|---|---|---|---|---|---|----|
|---|---|---|---|---|---|---|----|
|---|---|---|7--|---|---|2--|3---|
|2--|3--|2--|5--|2--|1--|0--|0---|
|0--|1--|0--|6--|0--|3--|0--|1---|

|----------------------|--------------------------------|-----------------|
|----------------------|--------------------------------|-----------------|
|----------------------|--------------12---------11-----|-----------------|
|--7-8-7---8--7--5--4--|--7-8-7----12----12---11----11--|--7-8-7------7---|
|5---------6--5--3--2--|5-------10----------9-----------|5---------2--9---|
|----------x--x--x-----|--------------------------------|----------0------|

|----------------------|RIFF VIII
|----------------------|
|----------------------|
|12--6------------10---|
|10--4--6--9--12--8----|
|-------4--7--10-------|

|---------------------|END
|---------------------|
|---------------------|
|9--8--5--4-----------|
|7--6--3--2--------2--|
|7--6--3--2--3--2--0--|
             x  x



RIFF I 	2 times
PART I	2 times
RIFF I	2 times
PART I	2 times
RIFF II	4 times
PART II	4 times
RIFF II	4 times
PART II	4 times
RIFF III	4 times
RIFF IV	4 times
RIFF III	4 times
RIFF IV 	4 times
RIFF V	4 times
RIFF VI	4 times
RIFF VII	2 times (breaks)
RIFF VII	4 times
E-cord
RIFF VIII	4 times
END		1 time
            
Submit corrections

comments powered by Disqus
↑ Back to top | Abigor Tabs for The Spirit Of Venus. Lyrics for acoustic guitar and electric guitar. 1 Tablatures and chords are parodies/interpretations of the original songs. You may use it for private study, scholarship, research or language learning purposes only