» » »

The Prophecy Tabs (ver.1)

Artists:  A B C D E F G H I J K L M N O P Q R S T U V W X Y Z # 

The Prophecy Tabs (ver.1)

Abigor
Rating:
0/5 (0 votes)

Hard to play? Try these video lessons and learn fast.
                
THE PROPHECY
As recorded by Abigor
(From the 1995 Album ORKBLUT-THE RETALIATION)

        

Words and Music by Abigor

Gtr I (E A D G B E) - 'Untitled'
Gtr II (E A D G B E) - 'Untitled'
Gtr III (E A D G B E) - 'Untitled'
Gtr IV (E A D G B E) - 'Untitled'

  Q=120
 4/4
  Gtr I
   E E  E E E E  E E     E  E  E  E E  E  E  E
|--------------------|-------------------------|
|--------------------|-------------------------|
|--------------------|-------------------------|
|------10-------10---|--------11-10-8-10-11-10-|
|--8-8----8-8-8----8-|---8--8------------------|
|--------------------|-------------------------|
|
| Gtr II
|  W                    +W
|--------------------|-------------------------|
|--------------------|-------------------------|
|--------------------|-------------------------|
|-10-----------------|-(10)--------------------|
|-10-----------------|-(10)--------------------|
|--8-----------------|--(8)--------------------|


  E E E E E E E E    E  E  E E E E  E E
|-----------------|------------------------|
|-----------------|------------------------|
|-----------------|------------------------|
|-----9-------9---|-------10-9-7-9-10-9----|
|-7-7---7-7-7---7-|--7--7------------------|
|-----------------|------------------------|
|
| W                 +W
|-----------------|------------------------|
|-----------------|------------------------|
|-----------------|------------------------|
|-9---------------|-(9)--------------------|
|-9---------------|-(9)--------------------|
|-7---------------|-(7)--------------------|


   E E  E E E E  E E     E  E  E  E E  E  E  E
|--------------------|-------------------------|
|--------------------|-------------------------|
|--------------------|-------------------------|
|------10-------10---|--------11-10-8-10-11-10-|
|--8-8----8-8-8----8-|---8--8------------------|
|--------------------|-------------------------|
|
|  W                    +W
|--------------------|-------------------------|
|--------------------|-------------------------|
|--------------------|-------------------------|
|-10-----------------|-(10)--------------------|
|-10-----------------|-(10)--------------------|
|--8-----------------|--(8)--------------------|


  E E E E E E E E    E  E  E E E E  E E
|-----------------|-----------------------|
|-----------------|-----------------------|
|-----------------|-----------------------|
|-----9-------9---|-------10-9-7-9-10-9---|
|-7-7---7-7-7---7-|--7--7-----------------|
|-----------------|-----------------------|
|
| W                 +W
|-----------------|-----------------------|
|-----------------|-----------------------|
|-----------------|-----------------------|
|-9---------------|-(9)-------------------|
|-9---------------|-(9)-------------------|
|-7---------------|-(7)-------------------|


    E E  E E E E  E E    E  E  E  E E  E  E  E
||--------------------|------------------------|
||o-------------------|------------------------|
||--------------------|------------------------|
||--------------------|------------------------|
||o-----10-------10---|-------11-10-8-10-11-10-|
||--8-8----8-8-8----8-|--8--8------------------|
|
|   W                   +W
||--------------------|------------------------|
||o-------------------|------------------------|
||--------------------|------------------------|
||--5-----------------|-(5)--------------------|
||o-5-----------------|-(5)--------------------|
||--3-----------------|-(3)--------------------|


  E E E E E E E E    E  E  E E E E  E E
|-----------------|-----------------------||
|-----------------|----------------------o||
|-----------------|-----------------------||
|-----------------|-----------------------||
|-----9-------9---|-------10-9-7-9-10-9--o||
|-7-7---7-7-7---7-|--7--7-----------------||
|
| W                 +W
|-----------------|-----------------------||
|-----------------|----------------------o||
|-----------------|-----------------------||
|-4---------------|-(4)-------------------||
|-4---------------|-(4)------------------o||
|-2---------------|-(2)-------------------||


  Q=175
  W
|-----------------------------------------|
|-----------------------------------------|
|-----------------------------------------|
|-9---------------------------------------|
|-7---------------------------------------|
|-0---------------------------------------|
|
| S S S S S S S S  S  S  S  S  S  S  S  S
|-----------------------------------------|
|-----------------------------------------|
|-----------------------------------------|
|-----------------------------------------|
|-7-7-7-7-7-7-7-7-10-10-10-10-10-10-10-10-|
|-----------------------------------------|


  +H                H
|-------------------------------------|
|-------------------------------------|
|-------------------------------------|
|-(9)---------------------------------|
|-(7)---------------------------------|
|-(0)---------------------------------|
|
|  S  S S S S S S S S S S S S S S S
|-------------------------------------|
|-------------------------------------|
|-------------------------------------|
|-------------------7-7-7-7-7-7-7-7---|
|--7--7-7-7-7-7-7-7-------------------|
|-------------------------------------|


  Gtr IV
   S  S  S  S  S  S  S  S S S S S S S S S
|-----------------------------------------|
|-----------------------------------------|
|-----------------------------------------|
|-14-14-14-14-14-14-14-14-9-9-9-9-9-9-9-9-|
|-----------------------------------------|
|-----------------------------------------|
|
|  S  S  S  S  S  S  S  S S S S S S S S S
|-----------------------------------------|
|-----------------------------------------|
|-----------------------------------------|
|-----------------------------------------|
|--7--7--7--7--7--7--7--7-----------------|
|-------------------------7-7-7-7-7-7-7-7-|


   S  S  S  S  S  S  S  S  S  S  S  S  S  S  S  S
|---------------------------------------------------|
|---------------------------------------------------|
|---------------------------------------------------|
|-10-10-10-10-10-10-10-10-12-12-12-12-14-14-14-14---|
|---------------------------------------------------|
|---------------------------------------------------|
|
|  S  S  S  S  S  S  S  S  S  S  S  S  S  S  S  S
|---------------------------------------------------|
|---------------------------------------------------|
|---------------------------------------------------|
|---------------------------------------------------|
|---------------------------------------------------|
|--8--8--8--8--8--8--8--8--5--5--5--5--0--0--0--0---|


  Q=120
  Gtr I
  E E E Q  E E E   +E  E E Q   E E E   E E E Q  E Q    +Q.   E E E E E
|----------------|-------------------|---------------|-----------------|
|----------------|-------------------|-------3--5-3--|-(3)-------------|
|-------0------0-|-(0)-----0---------|---------------|-----------------|
|----------4-----|-----4-------4-----|---4-5---------|-----------------|
|---0-2------2---|-------2-------0-2-|-3-------------|-------3-3-2-----|
|-0--------------|-------------------|---------------|-------------3-2-|
|
| W                +H        H         W                W
|----------------|-------------------|---------------|-----------------|
|----------------|-------------------|---------------|-----------------|
|----------------|-------------------|---------------|-----------------|
|----------------|-------------------|---------------|-----------------|
|----------------|-------------------|---------------|-----------------|
|-0--------------|-(0)---------------|---------------|-----------------|


  E E E Q    E E E   +E  E  E Q  E E E   E E  E  Q  E Q    +Q.     E E E E  E
|------------------|-------------------|-----------------|---------------------|
|------------------|-------------------|---------3--5-3--|-(3)-----------------|
|-------0--------0-|-(0)------0--------|-----------------|---------------------|
|------------4-----|-----4-------4-----|---4--5----------|---------------------|
|---0-2--------2---|--------2------0-2-|-3---------------|---------3-3-2-------|
|-0----------------|-------------------|-----------------|---------------3--2--|
|
| Gtr III
| H        H          E  H.          E   Q    H.            E  H.          +E
|------------------|-------------------|-----------------|---------------------|
|------------------|-------------------|-----------------|---------------------|
|------------------|-------------------|-----------------|---------------------|
|------------------|--7--9-----------7-|-9---10----------|--5--7-----------(7)-|
|---------10-------|-------------------|-----------------|---------------------|
|------------------|-------------------|-----------------|---------------------|


   E  E E Q    E E E   +E  E E Q  E  E  E
|--------------------|--------------------|
|--------------------|--------------------|
|---------0--------0-|-(0)-----0----------|
|--------------4-----|-----4------4-------|
|-----0-2--------2---|-------2-------0--2-|
|--0-----------------|--------------------|
|
| +Q    Q    H          E  E H      +Q
|--------------------|--------------------|
|--------------------|--------------------|
|--------------------|-------7------(7)---|
|-(7)----------------|--7--9--------------|
|-----------10-------|--------------------|
|--------------------|--------------------|


  E  E  E  Q  E Q    +Q.      E E E E   E
|------------------|-----------------------|
|----------3--5-3--|-(3)-------------------|
|------------------|-----------------------|
|----4--5----------|-----------------------|
|-3----------------|----------3-3-2--------|
|------------------|----------------3---2--|
|
| E  E  H.            E   H.           +E
|------------------|-----------------------|
|------------------|-----------------------|
|-9-11-12----------|-14--------------------|
|------------------|-----10-----------(10)-|
|------------------|-----------------------|
|------------------|-----------------------|


    E  E E Q    E E E   +E   E  E  Q     E   E   E
|---------------------|----------------------------|
|---------------------|----------------------------|
|----------0--------0-|-(0)--------0---------------|
|---------------4-----|------4-----------4---------|
|------0-2--------2---|---------2------------0---2-|
|---0-----------------|----------------------------|
|
|  +Q    Q    H          E   E  E  E  E  E  +E   E
|---------------------|----------------------------|
|---------------------|----------------------------|
|------------12-------|-11--12-14-12-11-12-(12)-11-|
|-(10)----------------|----------------------------|
|---------------------|----------------------------|
|---------------------|----------------------------|


   E  E E  Q    E  Q      +Q.      E  E E E E
|-----------------------|---------------------|
|----------3----5--3----|-(3)-----------------|
|-----------------------|---------------------|
|-----4-5---------------|---------------------|
|--3--------------------|----------3--3-2-----|
|-----------------------|-----------------3-2-|
|
|  E  Q    E  Q    E  E    E   Q   E  H
|-----------------------|---------------------|
|-----------------------|---------------------|
|-12-14---19-17---16-14-|-12--14--16-12-------|
|-----------------------|---------------------|
|-----------------------|---------------------|
|-----------------------|---------------------|


    E  E E Q    E E E   +E  E E  Q    E E E    E  E E Q  E Q
|---------------------|---------------------|-----------------*|
|---------------------|---------------------|---------3--5-3--*|
|----------0--------0-|-(0)------0----------|-----------------*|
|---------------4-----|-----4---------4-----|-----4-5---------*|
|------0-2--------2---|-------2---------0-2-|--3--------------*|
|---0-----------------|---------------------|-----------------*|
|
|  +Q    Q    H          E  Q    E  Q   E E   +W
|---------------------|---------------------|-----------------*|
|---------------------|---------------------|-----------------*|
|-(12)-------12-------|-11--9---------------|-----------------*|
|---------------------|---------12-10---9-7-|-(7)-------------*|
|---------------------|---------------------|-----------------*|
|---------------------|---------------------|-----------------*|



Duration Legend
---------------
W - whole; H - half; Q - quarter; E - 8th; S - 16th; T - 32nd; X - 64th; a - acciaccatura
+ - note tied to previous; . - note dotted; .. - note double dotted
Uncapitalized letters represent notes that are staccato (1/2 duration)
Irregular groupings are notated above the duration line
Duration letters will always appear directly above the note/fret number it represents the
duration for.  Duration letters with no fret number below them represent rests.  Multi-
bar rests are notated in the form Wxn, where n is the number of bars to rest for.  Low
melody durations appear below the staff

Tablature Legend
----------------
 h   - hammer-on
 p   - pull-off
 b   - bend
 pb  - pre-bend
 r   - bend release (if no number after the r, then release immediately)
 /\  - slide into or out of (from/to "nowhere")
 s   - legato slide
 S   - shift slide
 - natural harmonic
[n]  - artificial harmonic
n(n) - tapped harmonic
 ~   - vibrato
 tr  - trill
 T   - tap
 TP  - trem. picking
 PM  - palm muting
\n/  - tremolo bar dip; n = amount to dip
 \n  - tremolo bar down
 n/  - tremolo bar up
/n\  - tremolo bar inverted dip
 =   - hold bend; also acts as connecting device for hammers/pulls
 <> - volume swell (louder/softer)
 x   - on rhythm slash represents muted slash
 o   - on rhythm slash represents single note slash

Misc Legend
-----------
 |  - bar
||  - double bar
||o - repeat start
o|| - repeat end
*|  - double bar (ending)
 :  - bar (freetime)
 $  - Segno
 &  - Coda
Tempo markers -  = BPM(8/16=s8/s16), where s8 = swing 8ths, s16 = swing 16ths
            
Hard to play? Try these video lessons and learn fast. | Correct




comments powered by Disqus
↑ Back to top | Tablatures and chords are parodies/interpretations of the original songs. You may use it for private study, scholarship, research or language learning purposes only