» » »

Scars In The Landscape Of God Tabs (ver.1)

Artists:  A B C D E F G H I J K L M N O P Q R S T U V W X Y Z # 

Scars In The Landscape Of God Tabs (ver.1)

Abigor
Rating:
0/5 (0 votes)

Hard to play? Try these video lessons and learn fast.
                Downloaded from Apostasia web'zine.


Interviews, reviews, links, tabs etc.

Guitar Tab for "Scars in the Landscape of God"  
(artist: Abigor; Album :Nachthymnen (From the Twilight Kingdom))

Legend:
!=speed pick note


Riff1(clean tone)
|------------------------------------------------------------
|------------------------------------------------------------
|------------------------------------------------------------
|-----------9---------9-7---------7----------------9---------
|-7-10-7-10---10-7-10-----10-9-10---10-9-7-10-7-10---10-7-10-
|------------------------------------------------------------


-------------------|
-------------------|
-------------------|
-7----7----5-7-5-4-|
---10---10---------|
-------------------|


Riff2=Riff1 w/ distorsion


Riff3
|------------------------------------------------------------|
|------------------------------------------------------------|
|------------------------------------------------------------|
|------------7h8-----------7h8-----------7h8----------7h8----|
|-00007h80000---00007h80000---00007h80000---0000000000-------|
|------------------------------------------------------------|

Riff4
speed pick
|---------------------------------|
|---------------------------------|
|---------------------------------|
|-------10--7---------------------|
|--7-----------10------7----------|
|--------------------------10--7--|

Riff5
speed pick
|-----------------------|
|-----------------------|
|-----------------------|
|-----------------------|
|----------3------------|
|-5----1-------3--------|
|
|------------------------|
|------------------------|
|------------------------|
|-----------5------------|
|-7----3----3---5--------|
|-5----1--------3--------|
  !

Riff6 Grandiose!!
speed pick
|------------------------------------------------------------|
|------------------------------------------------------------|
|----------------9-8--------------------------7-6------------|
|--7------7---9------9----8----5-------5---7------7---6------|
|-----7----------------------------5-------------------------|
|------------------------------------------------------------|

Riff7
speed pick
|-------------------------------------------------------------|
|-------------------------------------------------------------|
|--------10--9-----------7--10-9-------repeat then------------|
|-----7--------10-----7----------10--transpose 2 frets lower--|
|--5---------------5------------------------------------------|
|-------------------------------------------------------------|

Riff8
speed pick gtr2
|----------------------------------------------|
|----------------------------------------------|
|----------------------------------------------|
|-----------10--9-----10--9--5--2--0--2--------|
|--7--------!---!--7--!---!--!--!--!--!--------|
|-----5--1---------!---------------------------|
|
|----------------------------------------------|
|----------------------------------------------|
|----------------------9--7--5--2--0--2--------|
|---7--7-----10--9-----------------------------|
|---------7---------7--------------------------|
|----------------------------------------------|

Riff9
speed pick gtr1
|----------------------------------------|
|----------------------------------------|
|----------------------------------------|
|----7--7-----10--9--7--3--5-------------|
|----------7------------------5----------|
|--------------------------------5-------|
|
|----------------------------------------|
|----------------------------------------|
|----------------------------------------|
|------------------------------5---------|
|----7----------3----7---3--5--3--5------|
|----5----------1----5---1--3-----3------|

Riff10
speed pick
|---------------------------------|
|---------------------------------|
|----5---4------------------------|
|-----------5--7-----5------------|
|-----------------8-----7---------|
|---------------------------------|
|
|---------------------------------|
|---------------------------------|
|---------------------------------|
|-----7---5-----------------------|
|-----------7--8-----7------------|
|-----------------10----8---------|


|-------------------------|
|-------------------------|
|-------------------------|
|--2------------2---5-----|
|--0--3-2-0h2h3-0---3-----|
|-------------------------|

Riff11
     brush chord
|----(0)----------------|
|-----0-----------------|
|-----2-----------------|
|-----2-----------------|
|--0--0-----------------|
|-----------------------|

Repeat riffs 10 & 11 several times then

Riff3,Riff4,Riff5,Riff6,Riff7,Riff8

ending riffs
|-----------------------------------------------|
|-----------------------------------------------|
|-----------------------------------------------|
|-----------10--9-----10--9--5--5-2-0--2-0------|
|--7---------------7----------------------------|
|-----5--1---------------------------------0----|

clean guitar
|-----------------------------------|
|-----------------------------------|
|--------2--------------------------|
|------2---3------2------0----------|
|----2----------2------1------------|
|--0----------0------3--------------|

w/ distorsion
|---------------------------6--7-----|
|------------------------------------|
|----------5--4----4--5--4-----------|
|------------------------------------|
|----3--2----------------------------|
|--0---------------------------------|

These two last riffs aren't completely correct but anyways, the guitar doesn't play an important part at that point.
            
Hard to play? Try these video lessons and learn fast. | Correct




comments powered by Disqus
↑ Back to top | Tablatures and chords are parodies/interpretations of the original songs. You may use it for private study, scholarship, research or language learning purposes only