» » »

Abigor, Bloodsoaked Overture Tabs (ver.1)

Artists:  A B C D E F G H I J K L M N O P Q R S T U V W X Y Z # 

Bloodsoaked Overture Tabs (ver.1)

Abigor Tabs
Rating:
0/5 (0 votes)
Bloodsoaked Overture lessons Tabs too difficult? Try these video lessons and learn fast
                
BLOODSOAKED OVERTURE
As recorded by Abigor
(From the 1995 Album ORKBLUT-THE RETALIATION)

	

Words and Music by Abigor

A5
5 7 7 x x x
	
G#5
4 6 6 x x x
	
F5
1 3 3 x x x
	
E5
0 2 2 x x x

Gtr I (E A D G B E) - 'Untitled'
Gtr II (E A D G B E) - 'Untitled'
Gtr III (E A D G B E) - 'Untitled'
Gtr IV (E A D G B E) - 'Untitled'

   Riff 1
    Fast Q=160
   4/4
    Gtr I
    S S S S S S S S S S S S S S S S   S S S S S S S S S S S S S S S S
||----------------------------------|---------------------------------|
||o---------------------------------|---------------------------------|
||--7-7-7-------7-7-7---------------|-----------------7-7-7-------7-7-|
||--------5-5-5-------5-5-5-3-3-3-3-|-3-3-4-4-4-4-4-4-------5-5-5-----|
||o---------------------------------|---------------------------------|
||----------------------------------|---------------------------------|


  S S S S S S S S S S S S S S S S   S S S S S S S S S S S S S S S S
|---------------------------------|---------------------------------|
|---------------------------------|---------------------------------|
|-7-------------------------------|-7-7-7-------7-7-7---------------|
|---5-5-5-3-3-3-3-3-3-4-4-4-4-4-4-|-------5-5-5-------5-5-5-3-3-3-3-|
|---------------------------------|---------------------------------|
|---------------------------------|---------------------------------|


  S S S S S S S S S S S S S S S S   S S S S S S S S S S S S S S S S
|---------------------------------|----------------------------------||
|---------------------------------|---------------------------------o||
|-----------------7-7-7-------7-7-|-7--------------------------------||
|-3-3-4-4-4-4-4-4-------5-5-5-----|---5-5-5-3-3-3-3-3-3-4-4-4-4-4-4--||
|---------------------------------|---------------------------------o||
|---------------------------------|----------------------------------||


   Riff 2
    Gtrs I, IV
     S  S  S S S S S S S S S S S S S S   S S S S S S S S  S  S  S S S S S S
||-------------------------------------|-------------------------------------|
||o------------------------------------|-------------------------------------|
||-------------------------------------|-------------------------------------|
||--10-10-10-9-9-9-7-7-7-------7-7-7-9-|-9-9-7-7-7-------10-10-10-9-9-9-7-7--|
||o----------------------7-7-7---------|-----------7-7-7---------------------|
||-------------------------------------|-------------------------------------|


  S S S S S S S S S S S S S S S S   S S S S S S  S  S  S  S  S  S S S S S
|---------------------------------|---------------------------------------|
|---------------------------------|---------------------------------------|
|---------------------------------|---------------------------------------|
|-7-------7-7-7-9-9-9-7-7-7-------|-9-9-9-9-9-9-------------------9-9-9-9-|
|---7-7-7-------------------7-7-7-|-------------10-10-10-10-10-10---------|
|---------------------------------|---------------------------------------|


  S S  S  S  S  S  S  S S S S S S S  S  S
|-----------------------------------------|
|-----------------------------------------|
|-----------------------------------------|
|-9-9-------------------9-9-9-9-9-9-------|
|-----10-10-10-10-10-10-------------10-10-|
|-----------------------------------------|


   S  S  S  S  S  S  S S S S S S S  S  S  S
|--------------------------------------------||
|-------------------------------------------o||
|--------------------------------------------||
|-------------10-10-10-9-9-9-7-7-7-----------||
|-10-10-10-10----------------------10-10-10-o||
|--------------------------------------------||


   Riff 3
    S S S S S S S S S S S S S S S S   S S S S S S S S S S S S S S S S
||----------------------------------|----------------------------------|
||o---------------------------------|----------------------------------|
||--7-7-7-------7-7-7---------------|-----------------7-7-7-------7-7--|
||--------5-5-5-------5-5-5-3-3-3-3-|-3-3-4-4-4-4-4-4-------5-5-5------|
||o---------------------------------|----------------------------------|
||----------------------------------|----------------------------------|


  S S S S S S S S S S S S S S S S   S S S S S S S S S S S S S S S S
|---------------------------------|---------------------------------|
|---------------------------------|---------------------------------|
|-7-------------------------------|-7-7-7-------7-7-7---------------|
|---5-5-5-3-3-3-3-3-3-4-4-4-4-4-4-|-------5-5-5-------5-5-5-3-3-3-3-|
|---------------------------------|---------------------------------|
|---------------------------------|---------------------------------|


  S S S S S S S S S S S S S S S S   S S S S S S S S S S S S S S S S
|---------------------------------|----------------------------------||
|---------------------------------|---------------------------------o||
|-----------------7-7-7-------7-7-|-7--------------------------------||
|-3-3-4-4-4-4-4-4-------5-5-5-----|---5-5-5-3-3-3-3-3-3-4-4-4-4-4-4--||
|---------------------------------|---------------------------------o||
|---------------------------------|----------------------------------||


 Guitar Break
  Gtr I
  Q  E E E E S S S S    S  S  S  S  S  S  S  S H
|--------------------|------------------------------||
|--------------------|------------------------------||
|--------------------|------------------------------||
|----2-3-2-3-7-7-7-7-|-11-11-11-11-12-12-12-12-9----||
|--------------------|------------------------------||
|-0------------------|------------------------------||


   Riff 4
    A5                                                          G#5
    Gtr III
    W                                 +Q       +H               Q
    |                                  |        |               |
    /                                  /        /               /

    S S S S S S S S S S S S S S S S    S S S S  S S S S S S S S S S S S
||----------------------------------|------------------------------------|
||o---------------------------------|-----------5-5-5-5-4-4-4-4----------|
||------------------2-2-2-2-3-3-3-3-|--5-5-5-5------------------5-5-5-5--|
||----------2-2-2-2-----------------|------------------------------------|
||o-0-0-0-0-------------------------|------------------------------------|
||----------------------------------|------------------------------------|
|
|   Gtr II
|   Q       E   E   E   E   E   E      E   E    E   E   E   E   Q
||----------------------------------|------------------------------------|
||o---------------------------------|------------------------------------|
||----------------------------------|------------------------------------|
||----------7-------7-------7-------|--7--------7-------7----------------|
||o-7-----------7-------7-------7---|------7--------7-------7---6--------|
||----------------------------------|------------------------------------|


                   F5           E5    A5
  +H               Q       +E   E     W
   |               |        |   |     |
   /               /        /   /     /

   S S S S S S S S S S S S  S S S S   S S S S S S S S S S S S S S S S
|-----------------------------------|---------------------------------|
|-----------------------------------|---------------------------------|
|--4-4-4-4--------------------------|-----------------2-2-2-2-3-3-3-3-|
|----------5-5-5-5-3-3-3-3--2-2-2-2-|---------2-2-2-2-----------------|
|-----------------------------------|-0-0-0-0-------------------------|
|-----------------------------------|---------------------------------|
|
|  E   E   E   E   E   E    E   E     Q       E   E   E   E   E   E
|-----------------------------------|---------------------------------|
|-----------------------------------|---------------------------------|
|-----------------------------------|---------------------------------|
|--6-------6-----------3--------2---|---------7-------7-------7-------|
|------6-------6---3--------3-------|-7-----------7-------7-------7---|
|-----------------------------------|---------------------------------|


                            G#5                        F5           E5
  +H               +Q       Q         +H               Q       +E   E
   |                |       |          |               |        |   |
   /                /       /          /               /        /   /

   S S S S S S S S  S S S S S S S S    S S S S S S S S S S S S  S S S S
|-----------------------------------|------------------------------------||
|----------5-5-5-5--4-4-4-4---------|-----------------------------------o||
|--5-5-5-5------------------5-5-5-5-|--4-4-4-4---------------------------||
|-----------------------------------|----------5-5-5-5-3-3-3-3--2-2-2-2--||
|-----------------------------------|-----------------------------------o||
|-----------------------------------|------------------------------------||
|
|  E   E   E   E    E   E   Q          E   E   E   E   E   E    E   E
|-----------------------------------|------------------------------------||
|-----------------------------------|-----------------------------------o||
|-----------------------------------|------------------------------------||
|--7-------7--------7---------------|--6-------6-----------3--------2----||
|------7-------7--------7---6-------|------6-------6---3--------3-------o||
|-----------------------------------|------------------------------------||


   Riff 5
   3/4
    S S S S S S S S +Q     S  S S  S  S  S  S  S  +Q
||-----------------------|-----------------------------|
||o----------------------|-----------------------------|
||--9-9-9----------------|-----------------------------|
||--------7-7-7-7-7-(7)--|--------10-10-10-10-10-(10)--|
||o----------------------|-8--8-8----------------------|
||-----------------------|-----------------------------|
|
|   Gtr IV
|   PM--------------|
|   Q       E E      Q     H.
||-----------------------|-----------------------------|
||o----------------------|-----------------------------|
||-----------------------|-----------------------------|
||--7-------x-7------7---|-3---------------------------|
||o-7-------x-7------7---|-3---------------------------|
||--5-------x-5------5---|-1---------------------------|


  S S S S S S S S +Q     H.
|----------------------|------------||
|----------------------|-----------o||
|-9-9-9----------------|------------||
|-------7-7-7-7-7-(7)--|-9----------||
|----------------------|-7---------o||
|----------------------|------------||
|
| PM--------------|
| Q       E   E    Q     H     E E
|----------------------|------------||
|----------------------|-----------o||
|----------------------|------------||
|-7-------x---7----7---|-2-----2-4--||
|-7-------x---7----7---|-2---------o||
|-5-------x---5----5---|-0----------||


   Outro
   4/4
    S S S S S S S S S S S S S S S S   S S S S S S S S S S S S S S S S
||----------------------------------|---------------------------------|
||o---------------------------------|---------------------------------|
||----------------------------------|---------------------------------|
||----------------------------------|---------------------------------|
||o-----------------7-7-7-7---------|---------7-7-7-7-----------------|
||--0-0-0-0-0-0-0-0---------0-0-0-0-|-0-0-0-0---------0-0-0-0-0-0-0-0-|
|
|   S S S S S S S S S S S S S S S S   S S S S S S S S S S S S S S S S
||----------------------------------|---------------------------------|
||o---------------------------------|---------------------------------|
||----------------------------------|---------------------------------|
||--5-5-5-5-5-5-5-5-5-5-5-5-5-5-5-5-|-5-5-5-5-5-5-5-5-5-5-5-5-5-5-5-5-|
||o---------------------------------|---------------------------------|
||----------------------------------|---------------------------------|


  S S S S S S S S S S S S S S S S   S S S S S S S S S S S S S S S S
|---------------------------------|---------------------------------|
|---------------------------------|---------------------------------|
|---------------------------------|---------------------------------|
|---------------------------------|-----------------7-7-7-7---------|
|-7-7-7-7-----------------7-7-7-7-|-5-5-5-5-5-5-5-5---------5-5-5-5-|
|---------0-0-0-0-0-0-0-0---------|---------------------------------|
|
| S S S S S S S S S S S S S S S S   S S S S S S S S S S S S S S S S
|---------------------------------|---------------------------------|
|---------------------------------|---------------------------------|
|---------------------------------|---------------------------------|
|-5-5-5-5-5-5-5-5-5-5-5-5-7-7-7-7-|-5-5-5-5-4-4-4-4-4-4-4-4-4-4-4-4-|
|---------------------------------|---------------------------------|
|---------------------------------|---------------------------------|


  S S S S S S S S S S S S S S S S   S S S S S S S S S S S S S S S S
|---------------------------------|----------------------------------||
|---------------------------------|---------------------------------o||
|---------------------------------|----------------------------------||
|---------7-7-7-7-----------------|-7-7-7-7-----------------7-7-7-7--||
|-5-5-5-5---------5-5-5-5-5-5-5-5-|---------5-5-5-5-5-5-5-5---------o||
|---------------------------------|----------------------------------||
|
| S S S S S S S S S S S S S S S S   S S S S S S S S S S S S S S S S
|---------------------------------|----------------------------------||
|---------------------------------|---------------------------------o||
|---------------------------------|----------------------------------||
|-4-4-4-4-4-4-4-4-4-4-4-4---------|----------------------------------||
|-------------------------5-5-5-5-|-5-5-5-5-5-5-5-5-5-5-5-5-5-5-5-5-o||
|---------------------------------|----------------------------------||


    S S S S S S S S S S S S S S S S   S S S S S S S S S S S S S S S S
||----------------------------------|----------------------------------|
||o---------------------------------|----------------------------------|
||--7-7-7-7-7-7-7-7-7-7-7-7-7-7-7-7-|----------------------------------|
||----------------------------------|-9-9-9-9-9-9-9-9-9-9-9-9-9-9-9-9--|
||o---------------------------------|----------------------------------|
||----------------------------------|----------------------------------|
|
|   S S S S S S S S S S S S S S S S   S S S S S S S S S S S S S S S S
||----------------------------------|----------------------------------|
||o---------------------------------|----------------------------------|
||----------------------------------|----------------------------------|
||--5-5-5-5-5-5-5-5-5-5-5-5-5-5-5-5-|-5-5-5-5-5-5-5-5-5-5-5-5-5-5-5-5--|
||o---------------------------------|----------------------------------|
||----------------------------------|----------------------------------|


  S S S S S S S S S S S S S S S S   S S S S S S S S S S S S S S S S
|---------------------------------|---------------------------------|
|---------------------------------|---------------------------------|
|-7-7-7-7-7-7-7-7-7-7-7-7-7-7-7-7-|-7-7-7-7-------------------------|
|---------------------------------|---------7-7-7-7-7-7-7-7-7-7-7-7-|
|---------------------------------|---------------------------------|
|---------------------------------|---------------------------------|
|
| S S S S S S S S S S S S S S S S   S S S S S S S S S S S S S S S S
|---------------------------------|---------------------------------|
|---------------------------------|---------------------------------|
|---------------------------------|---------------------------------|
|-5-5-5-5-5-5-5-5-5-5-5-5-7-7-7-7-|-5-5-5-5-4-4-4-4-4-4-4-4-4-4-4-4-|
|---------------------------------|---------------------------------|
|---------------------------------|---------------------------------|


  S S S S S S S S S S S S S S S S   S S S S S S S S S S S S S S S S
|---------------------------------|----------------------------------||
|---------------------------------|---------------------------------o||
|-7-7-7-7-7-7-7-7-7-7-7-7-7-7-7-7-|----------------------------------||
|---------------------------------|-7-7-7-7-7-7-7-7-7-7-7-7-7-7-7-7--||
|---------------------------------|---------------------------------o||
|---------------------------------|----------------------------------||
|
| S S S S S S S S S S S S S S S S   S S S S S S S S S S S S S S S S
|---------------------------------|----------------------------------||
|---------------------------------|---------------------------------o||
|---------------------------------|----------------------------------||
|-4-4-4-4-4-4-4-4-4-4-4-4---------|----------------------------------||
|-------------------------5-5-5-5-|-5-5-5-5-5-5-5-5-5-5-5-5-5-5-5-5-o||
|---------------------------------|----------------------------------||


  E E Q  H      +W
|-------------|--------*|
|-------------|--------*|
|-------------|--------*|
|-5-4-0--2----|-(2)----*|
|-------------|--------*|
|-------------|--------*|



Duration Legend
---------------
W - whole; H - half; Q - quarter; E - 8th; S - 16th; T - 32nd; X - 64th; a - acciaccatura
+ - note tied to previous; . - note dotted; .. - note double dotted
Uncapitalized letters represent notes that are staccato (1/2 duration)
Irregular groupings are notated above the duration line
Duration letters will always appear directly above the note/fret number it represents the
duration for.  Duration letters with no fret number below them represent rests.  Multi-
bar rests are notated in the form Wxn, where n is the number of bars to rest for.  Low
melody durations appear below the staff

Tablature Legend
----------------
 h   - hammer-on
 p   - pull-off
 b   - bend
 pb  - pre-bend
 r   - bend release (if no number after the r, then release immediately)
 /\  - slide into or out of (from/to "nowhere")
 s   - legato slide
 S   - shift slide
 - natural harmonic
[n]  - artificial harmonic
n(n) - tapped harmonic
 ~   - vibrato
 tr  - trill
 T   - tap
 TP  - trem. picking
 PM  - palm muting
\n/  - tremolo bar dip; n = amount to dip
 \n  - tremolo bar down
 n/  - tremolo bar up
/n\  - tremolo bar inverted dip
 =   - hold bend; also acts as connecting device for hammers/pulls
 <> - volume swell (louder/softer)
 x   - on rhythm slash represents muted slash
 o   - on rhythm slash represents single note slash

Misc Legend
-----------
 |  - bar
||  - double bar
||o - repeat start
o|| - repeat end
*|  - double bar (ending)
 :  - bar (freetime)
 $  - Segno
 &  - Coda
Tempo markers -  = BPM(8/16=s8/s16), where s8 = swing 8ths, s16 = swing 16ths
            
Submit corrections

comments powered by Disqus
↑ Back to top | Abigor Tabs for Bloodsoaked Overture. Lyrics for acoustic guitar and electric guitar. Tablatures and chords are parodies/interpretations of the original songs. You may use it for private study, scholarship, research or language learning purposes only