>
 >
I've Been Waiting For You

I've Been Waiting For You Bass Tabs

Abba - I've Been Waiting For You chords, tabs, tablatures, lyrics

Guitar lessons | Add/correct | Request | Top 50 tabs Artists:  A B C D E F G H I J K L M N O P Q R S T U V W X Y Z 0-9

I've Been Waiting For You Bass Tabs – Abba

CD, Sheet music, Poster

Do you like I've Been Waiting For You? Share with your friends now
Bass TabsChords
                         I've been waiting for you                             


                                                                            ABBA
Bass



G||-------|-------|-------|-------|-------|-------|-------|-------|-------|
D||-------|-------|-------|-------|-------|-------|-------|-------|-------|
A||-------|-------|-------|-------|-------|-------|-------|-------|-------|
E||-------|-------|-------|-------|-------|-------|-------|-------|-------|


  Q.     S S E  Q    E     Q.     S S E  Q    S S    Q.     S S E  Q    S S  
--3------L-3-3--3----3--|--2------L-2-2--2----2-2-|--0------L-0-0--0----3-0-|
------------------------|-------------------------|-------------------------|
------------------------|-------------------------|-------------------------|
------------------------|-------------------------|-------------------------|


  Q.     S S E  E.  S T S.    Q.     S S E  Q    E     Q.     S S E  Q    E   
---------------------------|------------------------|------------------------|
--3------L-3-3--3---5-0----|--1------L-1-1--1----1--|--0------L-0-0--0----0--|
---------------------------|------------------------|------------------------|
---------------------------|------------------------|------------------------|


  Q.     S S E  Q    E     Q.     S S E   X E  E  S T.  
------------------------|------------------------------|
------------------------|------------------------------|
--3------L-3-3--3----3--|--3------L-3-3s--8-8--L--8-L--|
------------------------|------------------------------|


  Q.     E   E  Q    S S    Q.     E    E   E   S S E   
-------------7--7----5-3-|---------3/--12--12--10-8-5--|
---------3/--------------|--1--------------------------|
--1----------------------|-----------------------------|
-------------------------|-----------------------------|


  Q.     E   E  Q    S S    Q.     E    E   E   S   S  E   
-------------7--7----5-3-|---------3/--12--12--10\-(7)-5--|
---------3/--------------|--1-----------------------------|
--1----------------------|--------------------------------|
-------------------------|--------------------------------|


  Q.     E   E  Q    S S    Q.     E    E   E   S S E   
-------------7--7----5-3-|---------3/--12--12--10-8-5--|
---------3/--------------|--1--------------------------|
--1----------------------|-----------------------------|
-------------------------|-----------------------------|


  Q.     E   E  Q    S S    Q.     E    E   E   S S S S    Q.     E  Q.     E   
-------------7--7----5-3-|---------3/--12--12--10-7-5---|--5------5--4------4--|
---------3/--------------|--1-------------------------3-|----------------------|
--1----------------------|------------------------------|----------------------|
-------------------------|------------------------------|----------------------|


  Q.     E  Q     Q        Q.     E  E  Q     E      W                         
--3------3--2----14s----|-------------------------|-------------------|-------|
------------------------|--1------1--3--3---------|-------------------|-------|
------------------------|-------------------------|-------------------|-------|
------------------------|--------------------13s--|--6----------------|-------|


          Q.     S S E  Q    E     Q.     S S E  Q    S S  
-------|--3------L-3-3--3----3--|--2------L-2-2--2----2-2-|
-------|------------------------|-------------------------|
-------|------------------------|-------------------------|
-------|------------------------|-------------------------|


  Q.     S S E  Q    S S    Q.     S S E  E.  S T S.    Q.     S S E  Q    E   
--0------L-0-0--0----3-0-|---------------------------|------------------------|
-------------------------|--3------L-3-3--3---5-0----|--1------L-1-1--1----1--|
-------------------------|---------------------------|------------------------|
-------------------------|---------------------------|------------------------|


  Q.     S S E  Q    E     Q.     S S E  Q    E   
------------------------|------------------------|
--0------L-0-0--0----0--|------------------------|
------------------------|--3------L-3-3--3----3--|
------------------------|------------------------|


  Q.     S S E   X E  E  S T.    Q.     E   E  Q    S S  
------------------------------|-------------7--7----5-3-|
------------------------------|---------3/--------------|
--3------L-3-3s--8-8--L--8-L--|--1----------------------|
------------------------------|-------------------------|


  Q.     E    E   E   S S E     Q.     E   E  Q    S S  
---------3/--12--12--10-8-5--|-------------7--7----5-3-|
--1--------------------------|---------3/--------------|
-----------------------------|--1----------------------|
-----------------------------|-------------------------|


  Q.     E    E   E   S   S  E     Q.     E   E  Q    S S  
---------3/--12--12--10\-(7)-5--|-------------7--7----5-3-|
--1-----------------------------|---------3/--------------|
--------------------------------|--1----------------------|
--------------------------------|-------------------------|


  Q.     E    E   E   S S E     Q.     E   E  Q    S S  
---------3/--12--12--10-8-5--|-------------7--7----5-3-|
--1--------------------------|---------3/--------------|
-----------------------------|--1----------------------|
-----------------------------|-------------------------|


  Q.     E    E   E   S S S S    Q.     E  Q.     E     Q.     E  Q     Q      
---------3/--12--12--10-7-5---|--5------5--4------4--|--3------3--2----14s----|
--1-------------------------3-|----------------------|------------------------|
------------------------------|----------------------|------------------------|
------------------------------|----------------------|------------------------|


  Q.     E   E  Q     E      W                   Q.     E   E  Q     E    
--------------------------|-------------------|--------------------------|
--1------1s--3--3---------|-------------------|--1------1s--3--3---------|
--------------------------|-------------------|--------------------------|
---------------------13s--|--6----------------|---------------------13s--|


  W                   Q.     E   E  Q    S S    Q.     E    E   E   S S E   
-------------------|-------------7--7----5-3-|---------3/--12--12--10-8-5--|
-------------------|---------3/--------------|--1--------------------------|
-------------------|--1----------------------|-----------------------------|
--6----------------|-------------------------|-----------------------------|


  Q.     E   E  Q    S S    Q.     E    E   E   S   S  E   
-------------7--7----5-3-|---------3/--12--12--10\-(7)-5--|
---------3/--------------|--1-----------------------------|
--1----------------------|--------------------------------|
-------------------------|--------------------------------|


  Q.     E   E  Q    S S    Q.     E    E   E   S S E   
-------------7--7----5-3-|---------3/--12--12--10-8-5--|
---------3/--------------|--1--------------------------|
--1----------------------|-----------------------------|
-------------------------|-----------------------------|


  Q.     E   E  Q    S S    Q.     E    E   E   S   S  E   
-------------7--7----5-3-|---------3/--12--12--10\-(7)-5--|
---------3/--------------|--1-----------------------------|
--1----------------------|--------------------------------|
-------------------------|--------------------------------|


  Q.     E   E  Q    S S    Q.     E    E   E   S S E   
-------------7--7----5-3-|---------3/--12--12--10-8-5--|
---------3/--------------|--1--------------------------|
--1----------------------|-----------------------------|
-------------------------|-----------------------------|


  Q.     E   E  Q    S S    Q.     E    E   E   S   S  E   
-------------7--7----5-3-|---------3/--12--12--10\-(7)-5--|
---------3/--------------|--1-----------------------------|
--1----------------------|--------------------------------|
-------------------------|--------------------------------|


  Q.     E   E  Q    S S    Q.     E    E   E   S S E   
-------------7--7----5-3-|---------3/--12--12--10-8-5--|
---------3/--------------|--1--------------------------|
--1----------------------|-----------------------------|
-------------------------|-----------------------------|


  Q.     E   E  Q    S S    Q.     E    E   E   S   S  E    
-------------7--7----5-3-|---------3/--12--12--10\-(7)-5--||
---------3/--------------|--1-----------------------------||
--1----------------------|--------------------------------||
-------------------------|--------------------------------||




Duration Legend
---------------
W - whole
H - half
Q - quarter
E - 8th
S - 16th
T - 32nd
X - 64th
. - note dotted
|-n-|  - n-tuplets


Tablature Legend
----------------
L - tied note
x - dead note
g - grace note
(n) - ghost note
> - accentuded note
NH - natural harmonic
AH - artificial harmonic
TH - tapped harmonic
SH - semi harmonic
PH - pitch harmonic
h - hammer on
p - pull off
b - bend
br - bendRelease
pb - preBend
pbr - preBendRelease
brb - bendReleaseBend
\n/ - tremolo bar dip
\n - tremolo bar dive
-/n - tremolo bar Release up
/n\ - tremolo bar inverted dip
/n - tremolo bar return
-\n - tremolo bar Release down
S - shift slide
s - legato slide
/ -  slide into from below or out of upwards
\ -  slide into from above or out of downwards
~ - vibrato
W - wide vibrato
tr - trill
TP - tremolo picking
T - tapping
S - slap
P - pop
< - fade in
^ - brush up
v - brush down





Comments


Popular Abba tabs & chords
Chiquitita 1 Chords
Does Your Mother Know 1 Chords
Like An Angel Passing Through My Room Chords
Our Last Summer Intro Chords
So Long Chords
Sos 3 Chords
The Visitors Chords
The Way Old Friends Do Chords
The Winner Takes It All 3 Chords
Lay All Your Love On Me Tabs


Song lyrics



↑ Back to top | Tablatures and chords are parodies/interpretations of the original songs. You may use it for private study, scholarship, research or language learning purposes only
© 2014 AZChords.com Contact us | Privacy policy | DMCA | Add/correct tabs | Request tabs | Top 50 tabs