>
 >
I Do, I Do, I Do, I Do, I Do

I Do, I Do, I Do, I Do, I Do Bass Tabs

Abba - I Do, I Do, I Do, I Do, I Do chords, tabs, tablatures, lyrics

Guitar lessons | Add/correct | Request | Top 50 tabs Artists:  A B C D E F G H I J K L M N O P Q R S T U V W X Y Z 0-9

I Do, I Do, I Do, I Do, I Do Bass Tabs – Abba

CD, Sheet music, Poster

Do you like I Do, I Do, I Do, I Do, I Do? Share with your friends now
Bass TabsChords
++++++++++++++++++++++++++++++++++++++
| ABBA- I Do, I Do, I Do, I Do, I Do |
++++++++++++++++++++++++++++++++++++++


"I cant conceal it, dont you see? cant you feel it?"

Tuning: EADG


Intro
1.
G|-------------------------------------|
D|-----------------------2~--5-5-3-2-0-|
A|-----2~-5-----2~-5-3~----------------|
E|-3~-------3~-------------------------|

Verse
"Love me or leave me..."
2.
G|------------------------------------2------------------------------------|
D|---------------------------2-0~--3~-------------------------2~-5-5-3-2-0-|
A|-3~-------3~-----3--0~--4~----------------2~-5-----2~-5-3~---------------|
E|-----3~-3-----3~--3-------------------3~-------3~------------------------|

"I cant conceal it..."
3.
G|------------------------------------2-----------------------------------------|
D|---------------------------2-0~--3~---------------------------3~--3-----------|
A|-3~-------3~------3-0~--4~----------------2~-5-----2~-5-3~--3-------3~--3---3-|
E|-----3~-3-----3~-3--------------------3~-------3~-------------------------3---|

Chorus
"Oh, I've been dreaming..."
4.
G|--------------------------------------------------------2---------|
D|-5---------------3---2--0------------------------0~--3~---5-3-2-0-|
A|-----5---3-----3------------3---35-------5------------------------|
E|-------------3-----------------------5-------5-5------------------|

Verse
"So come on, now lets try it..."
5.
G|------------------------------------2-----------------------------------------|
D|---------------------------2-0~--3~---------------------------3~--3-----------|
A|-3~-------3~------3-0~--4~----------------2~-5-----2~-5-3~--3-------3x--------|
E|-----3~-3-----3~-3--------------------3~-------3~-----------------------------|

6.
G|-------------------------------------|
D|-----------------------2~--5-5-3-2-0-|
A|-----2~-5-----2~-5-3~----------------|
E|-3~-------3~-------------------------|

Bridge
7.
G|------------------------------------2-----------------------------------------|
D|---------------------------2-0~--3~---------------------------3~--3-----------|
A|-3~-------3~------3-0~--4~----------------2~-5-----2~-5-3~--3-------3~--3---3-|
E|-----3~-3-----3~-3--------------------3~-------3~-------------------------3---|

Chorus
"Oh no hard feelings.."
8.
G|--------------------------------------------------------2---------|
D|-5---------------3---2--0------------------------0~--3~---5-3-2-0-|
A|-----5---3-----3------------3---35-------5------------------------|
E|-------------3-----------------------5-------5-5------------------|

Verse
"So come on, now lets try it..."
9.
G|------------------------------------2------------------------------------|
D|---------------------------2-0~--3~--------------------------------------|
A|-3~-------3~------3-0~--4~----------------2~-5-----2~-5-3~--3-3----------|
E|-----3~-3-----3~-3--------------------3~-------3~---------------4~--44-4-|

"Love me or leave me..."
10.
G|------------------------------------3------------------------------------|
D|---------------------------3-----4~-------------------------3~-6-6-4-3---|
A|-4~-------4~------4-----5~---6~-----------3~-6-----3~-6-4~-------------6-|
E|-----4~-4-----4~-4--6~----------------4~-------4~------------------------|

"I cant conceal it..."
11.
G|------------------------------------3-----------------------------------------|
D|---------------------------3-----4~---------------------------4~--4-----------|
A|-4~-------4~------4-----5~---6~-----------3~-6-----3~-6-4~--4-------4x--------|
E|-----4~-4-----4~-4--6~----------------4~-------4~-----------------------------|

Outro
12.
G|-------------------------------------------------------------------------|
D|-----------------------3~-6-----3~-6-----------------------3~-6-----3~-6-|
A|-----3~-6-----3~-6-4~-------4~-----------3~-6-----3~-6-4~-------4~-------|
E|-4~-------4~-------------------------4~-------4~-------------------------|

Please rate thanks!


Lyrics:

Love me or leave me, make your choice but believe me
I love you
I do, I do, I do, I do, I do
I can't conceal it, don't you see, can't you feel it?
Don't you too? 
I do, I do, I do, I do, I do

Oh, I've been dreaming through my lonely past
Now I just made it, I found you at last

So come on, now let's try it, I love you, can't deny it
'Cos it's true
I do, I do, I do, I do, I do

Oh, no hard feelings between you and me
If we can't make it, but just wait and see



+++++++++++
| Raileff |
+++++++++++





Comments


Popular Abba tabs & chords
Dancing Queen 3 Chords
Fernando 4 Chords
Hole In Your Soul Chords
Super Trouper 1 Chords
The Winner Takes It All Chords
Angeleyes 2 Tabs
Gimme! Gimme! Gimme! Tabs
Lay All Your Love On Me Tabs
Super Trouper 1 Tabs
Voulez-vous Ukulele


Song lyrics



↑ Back to top | Tablatures and chords are parodies/interpretations of the original songs. You may use it for private study, scholarship, research or language learning purposes only
© 2014 AZChords.com Contact us | Privacy policy | DMCA | Add/correct tabs | Request tabs | Top 50 tabs