» » »

Abba, Gimme Gimme Gimme Tabs (ver.4)

Artists:  A B C D E F G H I J K L M N O P Q R S T U V W X Y Z # 

Gimme Gimme Gimme Tabs (ver.4)

Abba Tabs
 Rating:
4/5 (4 votes)
Gimme Gimme Gimme lessons Tabs too difficult? Try these video lessons and learn fast
1
                -------------------------------------------------------------------------------
                              Gimme! Gimme! Gimme! (A Man After Midnight) - ABBA
-------------------------------------------------------------------------------

Tuning: Standard

Intro [pt. 1]
e|-----------------------------------------------------------------|
B|----3-------3-------0-------3-------3-------3------0-------3-----|
G|--2---2---3---3---0---0---2---2---3---3---2---2--0---0---2---2---|
D|0-----------------------0---------------0--------------0-------0~|x2
A|--------1-------3---------------1---------------3----------------|
E|-----------------------------------------------------------------|

[pt. 2]
e|---------------------------------------------------------------|
B|---------------------------------------------------------------|
G|-----------------------------0h2-222-222-222-2-0---------------|
D|0-000-000-000-00-023-333-333---------------------0-000-000-000-|x2
A|---------------------------------------------------------------|
E|---------------------------------------------------------------|

Verse 1:
e|-------------------------------|
B|-------------------------------|
G|7-5--------------5/7~-5/7~-5/7~|
D|----7--5-3-5~----3/5~-3/5~-5/7~|x2
A|-------------------------------|
E|-------------------------------|

Pre-Chorus:
e|----------------------------------|
B|----------------------------------|
G|7/3~------------------------------|
D|--------8/5~----5/7~-----22222222-|
A|5/1~---------------------00000000-|
E|--------6/3~----3/5~--------------|

Chorus:
e|-----------------------------------------------------------------|
B|----3-------3-------0-------3-------3-------3------0-------3-----|
G|--2---2---3---3---0---0---2---2---3---3---2---2--0---0---2---2---|
D|0-----------------------0---------------0--------------0-------0-|x2
A|--------1-------3---------------1---------------3----------------|
E|-----------------------------------------------------------------|

Post-Chorus:
e|---------------------------------------------------------------|
B|---------------------------------------------------------------|
G|-----------------------------0h2-222-222-222-2-0---------------|
D|0-000-000-000-00-023-333-333---------------------0-000-000-000-|x2
A|---------------------------------------------------------------|
E|---------------------------------------------------------------|

Verse 2:
e|-------------------------------|
B|-------------------------------|
G|7-5--------------5/7~-5/7~-5/7~|
D|----7--5-3-5~----3/5~-3/5~-5/7~|x2
A|-------------------------------|
E|-------------------------------|

Pre-Chorus 2:
e|----------------------------------|
B|----------------------------------|
G|7/3~------------------------------|
D|--------8/5~----5/7~-----22222222-|
A|5/1~---------------------00000000-|
E|--------6/3~----3/5~--------------|

Chorus 2:
e|-----------------------------------------------------------------|
B|----3-------3-------0-------3-------3-------3------0-------3-----|
G|--2---2---3---3---0---0---2---2---3---3---2---2--0---0---2---2---|
D|0-----------------------0---------------0--------------0-------0-|x4
A|--------1-------3---------------1---------------3----------------|
E|-----------------------------------------------------------------|

Bass Solo & Break

Pre-Chorus 3:
e|----------------------------------|
B|----------------------------------|
G|7/3~------------------------------|
D|--------8/5~----5/7~-----22222222-|
A|5/1~---------------------00000000-|
E|--------6/3~----3/5~--------------|

Chorus 3:
e|-----------------------------------------------------------------|
B|----3-------3-------0-------3-------3-------3------0-------3-----|
G|--2---2---3---3---0---0---2---2---3---3---2---2--0---0---2---2---|
D|0-----------------------0---------------0--------------0-------0-|x4
A|--------1-------3---------------1---------------3----------------|
E|-----------------------------------------------------------------|

Outro:
e|---------------------------------------------------------------|
B|---------------------------------------------------------------|
G|-----------------------------0h2-222-222-222-2-0---------------|
D|0-000-000-000-00-023-333-333---------------------0-000-000-000-|x3
A|---------------------------------------------------------------|
E|---------------------------------------------------------------|
            
Submit corrections

comments powered by Disqus
↑ Back to top | Abba Tabs for Gimme Gimme Gimme. Lyrics for acoustic guitar and electric guitar. 1 Tablatures and chords are parodies/interpretations of the original songs. You may use it for private study, scholarship, research or language learning purposes only