» » »

Eagle Chords (ver.1)

Artists:  A B C D E F G H I J K L M N O P Q R S T U V W X Y Z # 

Eagle Chords (ver.1)

Abba
Rating:
5/5 (2 votes)

Hard to play? Try these video lessons and learn fast.
                Intro chords:  Em    Am    

(VERSE) (Em) They came flyin' from far away, now I'm under their spell
I love hearing the (D) stories that they tell (Em)
They've seen places beyond my land and they've found new hori (Bm) zons
(Em) They speak strangely (D) but I understand  (Em)

And I dream I'm an eagle (B7)    (Em)
And I dream I can spread my wings  (A7)

(CHORUS) Flyin' (G) high, (D) high, I'm a (Em) bird in the sky (D)
I'm an (Em) eagle that (D) rides on the breeze (Em)
High, high, what a feeling to fly
Over mountains and forests and seas
And to go anywhere that I please

(VERSE) As all good friends we talk all night, and we fly wing to wing
I have questions and they know everything
There's no limit to what I feel, we climb higher and higher
Am I dreamin' or is it all real

Is it true I'm an eagle
Is it true I can spread my wings
(CHORUS)

And I dream I'm an eagle
And I dream I can spread my wings
(CHORUS)

Here is the main guitar riff/solo that’s played during the Em chord.

E---------------------|----------------------
B-------------------- |----------------------
G--9-9----7---9-9-----|----9--7-------------
D-------9-------------|----------9--7-------
A-------------------- |-----------------9---
E---------------------|----------------------

Here’s the solo played in the middle of the song:

E------------------------|----------------------------------------------------
B------------------------|----------------------------------------------------
G---9-9-----7-9-7--------|-----------------------------------------7----------
D--------------------9---|---7-7-7-5-7----5--7-7--5-----5-5---7--5-5---
A----------------------- |----------------7--------------7-------------------
E------------------------|----------------------------------------------------

E--------------------------------------------------
B--------------------------------------------------
G--------------------------------------------------
D-------5—7(bend up ?)-----7--5--7---------
A---7------------------------7--------------------
E---------------------------------------------------

E--------------------------------------------------------------------------------------------------------
B--------------------------------------------------------------------------------------------------------
G---9-9----7-9-7--------------------------------------------------------------------------------------
D-------------------9-9-------7-7-7-5-7-------5—7(bend ?)---7--5----7(bend ?)-5-7-5------
A---------------------------------------------7----------------7------------7--------------------------
E--------------------------------------------------------------------------------------------------------

Corrections welcomed!
            
Hard to play? Try these video lessons and learn fast. | Correct




comments powered by Disqus
↑ Back to top | Tablatures and chords are parodies/interpretations of the original songs. You may use it for private study, scholarship, research or language learning purposes only