>
 >
The Remedy 2

The Remedy 2 Guitar Tabs

Abandoned Pools - The Remedy 2 chords, tabs, tablatures, lyrics

Guitar lessons | Add/correct | Request | Top 50 tabs Artists:  A B C D E F G H I J K L M N O P Q R S T U V W X Y Z 0-9

The Remedy 2 Guitar Tabs – Abandoned Pools

CD, Sheet music, Poster

Do you like The Remedy 2? Share with your friends now
ChordsTabsTabs v2Tabs v3Tabs v4Ukulele
-------------------------------------------------------------------------------
                             The Remedy - Abandoned Pools
-------------------------------------------------------------------------------

Tuning: Standard

Intro

e|-15-14-------15-14-------15-14-----------------------------------------------|
B|-------15-12-------15-12-------15-12-----------------------------------------|
G|-----------------------------------------------------------------------------|
D|-----------------------------------------------------------------------------|
A|-----------------------------------------------------------------------------|
E|-----------------------------------------------------------------------------|

Verse 

   E-                C+        A-
e|-0-00-000-000-0000-3-33-3333-5-55-5555---------------------------------------|
B|-0-00-000-000-0000-5-55-5555-5-55-5555---------------------------------------|
G|-0-00-000-000-0000-5-55-5555-5-55-5555---------------------------------------|
D|-2-22-222-222-2222-5-55-5555-7-77-7777---------------------------------------|
A|-2-22-222-222-2222-3-33-3333-7-77-7777---------------------------------------|
E|-0-00-000-000-0000-----------5-55-5555---------------------------------------|

Chorus

   C+                 A-                 G+                 D+
e|-3333-33-3-333-3333-5555-55-5-555-5555-3333-33-3-333-3333-5555-55-5-555-5555-|
B|-5555-55-5-555-5555-5555-55-5-555-5555-3333-33-3-333-3333-7777-77-7-777-7777-|
G|-5555-55-5-555-5555-5555-55-5-555-5555-4444-44-4-444-4444-7777-77-7-777-7777-|
D|-5555-55-5-555-5555-7777-77-7-777-7777-5555-55-5-555-5555-7777-77-7-777-7777-|
A|-3333-33-3-333-3333-7777-77-7-777-7777-5555-55-5-555-5555-5555-55-5-555-5555-|
E|--------------------5555-55-5-555-5555-3333-33-3-333-3333--------------------|

   C+                 A-                 G+                 B+ 
e|-3333-33-3-333-3333-5555-55-5-555-5555-3333-33-3-333-3333-2222-22-2-222-2222-|
B|-5555-55-5-555-5555-5555-55-5-555-5555-3333-33-3-333-3333-4444-44-4-444-4444-|
G|-5555-55-5-555-5555-5555-55-5-555-5555-4444-44-4-444-4444-4444-44-4-444-4444-|
D|-5555-55-5-555-5555-7777-77-7-777-7777-5555-55-5-555-5555-4444-44-4-444-4444-|
A|-3333-33-3-333-3333-7777-77-7-777-7777-5555-55-5-555-5555-2222-22-2-222-2222-|
E|--------------------5555-55-5-555-5555-3333-33-3-333-3333--------------------|
  
Outro

e|-------------------------15-14-----------------------------------------------|
B|---8-5---8-5---8-5---8-5-------15-12-----------------------------------------|
G|-4-----4-----4-----4---------------------------------------------------------|
D|-----------------------------------------------------------------------------|
A|-----------------------------------------------------------------------------|
E|-----------------------------------------------------------------------------|

It's a short tab, so that's about it!

************************************

| /   slide up
| \   slide down
| h   hammer-on
| p   pull-off
| ~   vibrato
| +   harmonic
| x   Mute note
| b   Bend
| pb  Pre-bend
| br  Bend release
| pbr Pre-bend release
| brb Bend release bend

************************************





Comments


Popular Abandoned Pools tabs & chords
Never Chords
The Remedy Chords
Fluorescein Tabs
L.V.B.D Tabs
L.V.B.D 1 Tabs
L.V.B.D 2 Tabs
Mercy Kiss Tabs
Never Tabs
The Remedy 1 Tabs
Never Ukulele


Song lyrics



↑ Back to top | Tablatures and chords are parodies/interpretations of the original songs. You may use it for private study, scholarship, research or language learning purposes only
© 2014 AZChords.com Contact us | Privacy policy | DMCA | Add/correct tabs | Request tabs | Top 50 tabs