» » »

Abandoned Pools, The Remedy Bass tabs (ver.1)

Artists:  A B C D E F G H I J K L M N O P Q R S T U V W X Y Z # 

The Remedy Bass tabs (ver.1)

Abandoned Pools Tabs
Rating:
0/5 (0 votes)
The Remedy  lessons Tabs too difficult? Try these video lessons and learn fast
                (1)

Standard Tuning

Intro/Outtro
E|-0-|

Verse/Chorus:
A| ------------------------------------10---10---------7---7 |
E| 0-0-0-0-7-0-7-0-0-0-0-7-0-7-8-8-8-8----8----5-5-5-5---5-- |

Pre-Chorus:
(Here I'm not too sure about the last part, but it's sounds pretty good....)
G| ----------------------------------------9---9---------9---9-
D| --------------------------------7-7-7-7---7---7-7-7-7---7---
A| --------10---10---------10---10-----------------------------
E| 8-8-8-8----8----8-8-8-8----8--------------------------------

	----------------------------------------------------------------------|
	------------12----12-------------12----12-----------------------------|
	10-10-10-10----10----10-10-10-10----10------------9---9---------9---9-|
	------------------------------------------7-7-7-7---7---7-7-7-7---7---|

Structure:

Intro	x1

Verse	x6
Pre-Chorus	x2
Chorus	x4

Verse	x4
Pre-Chorus	x2
Chorus	x4

Pre-Chorus	x2
Verse	x4

Outtro	x1
            
Submit corrections

comments powered by Disqus
↑ Back to top | Abandoned Pools Bass for The Remedy. Lyrics for acoustic guitar and electric guitar. Tablatures and chords are parodies/interpretations of the original songs. You may use it for private study, scholarship, research or language learning purposes only