» » »

Abandoned Pools, Never Tabs (ver.1)

Artists:  A B C D E F G H I J K L M N O P Q R S T U V W X Y Z # 

Never Tabs (ver.1)

Abandoned Pools Tabs
Rating:
0/5 (0 votes)
Never lessons Tabs too difficult? Try these video lessons and learn fast
                ill get the rest of the piano later

INTRO:
|--6----8----6----6---6-6--|
|--6----8----6----6---6-6--|
|--7---10----8----7---8-7--|
|--8---10----8----8---8-8--|
|--8---10----6----8---6-8--|
|--6----8----6----6---6-6--|

piano
|-----10-----11--10--8--10------|
|--6------6-----------------11--|
|-------------------------------|
|-------------------------------|
|-------------------------------|
|-------------------------------|

VERSE:
|--8----6----6---6-6--|
|--8----6----6---6-6--|
|-10----8----7---8-7--|
|-10----8----8---8-8--|
|-10----6----8---6-8--|
|--8----6----6---6-6--|

|--8----6----6---6-6---|
|--8----6----6---6-6---|
|-10----8----7---8-7---|
|-10----8----8---8-8---|
|-10----6----8---6-8---|
|--8----6----6---6-6---|

CHORUS:
|----3----8----6----8---|
|----3----8----6----8---|
|----3---10----8---10---|
|--7-5---10----8---10---|
|--7-5---10----6---10---|
|--5-3----8----6----8---|

BRIDGE:
|--6---6-6----8----6----6---6-6--|
|--6---6-6----8----6----6---6-6--|
|--7---8-7---10----8----7---8-7--|
|--8---8-8---10----8----8---8-8--|
|--8---6-8---10----6----8---6-8--|
|--6---6-6----8----6----6---6-6--|


VERSE 2:
|--8----6----6---6-6--|
|--8----6----6---6-6--|
|-10----8----7---8-7--|
|-10----8----8---8-8--|
|-10----6----8---6-8--|
|--8----6----6---6-6--|

|--8----6----6---6-6---|
|--8----6----6---6-6---|
|-10----8----7---8-7---|
|-10----8----8---8-8---|
|-10----6----8---6-8---|
|--8----6----6---6-6---|

CHORUS:
|----3----8----6----8---|
|----3----8----6----8---|
|----3---10----8---10---|
|--7-5---10----8---10---|
|--7-5---10----6---10---|
|--5-3----8----6----8---|

|--6---5---|
|--6---5---|
|--7---5---|
|--8---7---|
|--8---7---|
|--6---5---|

PRECHORUS:
|--3---5---6---5---|
|--3---5---6---5---|
|--3---5---7---5---|
|--5---7---8---7---|
|--5---7---8---7---|
|--3---5---6---5---|

|--3---5---6---6-6---|
|--3---5---6---6-6---|
|--3---5---7---8-7---|
|--5---7---8---8-8---|
|--5---7---8---6-8---|
|--3---5---6---6-6---|

BRIDGE:
|---8----6----6---6-6--|
|---8----6----6---6-6--|
|--10----8----7---8-7--|
|--10----8----8---8-8--|
|--10----6----8---6-8--|
|---8----6----6---6-6--|

CHORUS:
|----3----8----6----8---|
|----3----8----6----8---|
|----3---10----8---10---|
|--7-5---10----8---10---|
|--7-5---10----6---10---|
|--5-3----8----6----8---|

|--6---5---|
|--6---5---|
|--7---5---|
|--8---7---|
|--8---7---|
|--6---5---|

PRECHORUS:
|--3---5---6---5---|
|--3---5---6---5---|
|--3---5---7---5---|
|--5---7---8---7---|
|--5---7---8---7---|
|--3---5---6---5---|

|--3---5---6---6-6---|
|--3---5---6---6-6---|
|--3---5---7---8-7---|
|--5---7---8---8-8---|
|--5---7---8---6-8---|
|--3---5---6---6-6---|

BRIDGE:
|---8----6----6---6-6--|
|---8----6----6---6-6--|
|--10----8----7---8-7--|
|--10----8----8---8-8--|
|--10----6----8---6-8--|
|---8----6----6---6-6--|

CHORUS/ENDING:            2x
|--6----8----6-6--6----6-6---|
|--6----8----6-6--6----6-6---|
|--8---10----8-8--7----8-7---|
|--8---10----8-8--8----8-8---|
|--6---10----6-6--8----6-8---|
|--6----8----6-6--6----6-6---|

|--6-6----6-6--6~~--|
|--6-6----6-6--6~~--|
|--8-7----8-8--7~~--|
|--8-8----8-8--8~~--|
|--6-8----6-6--8~~--|
|--6-6----6-6--6~~--|
            
Submit corrections

comments powered by Disqus
↑ Back to top | Abandoned Pools Tabs for Never. Lyrics for acoustic guitar and electric guitar. Tablatures and chords are parodies/interpretations of the original songs. You may use it for private study, scholarship, research or language learning purposes only