» » »

Abandoned Pools, Mercy Kiss Tabs (ver.1)

Artists:  A B C D E F G H I J K L M N O P Q R S T U V W X Y Z # 

Mercy Kiss Tabs (ver.1)

Abandoned Pools Tabs
 Rating:
4/5 (4 votes)
Mercy Kiss lessons Tabs too difficult? Try these video lessons and learn fast
                e(------------------------------------)
b(------------------------------------)
g(--1-1-----1-1-1---1-1---------------)
d(----------------1---------1-2-2-121-)
a(--------------------------------121-)
D(------666-------------666-------121-)

verse
e(----------------------4---4---4-)
b(--------------------------------)
g(--------------------------------)
d(--2---0-------------2---0-------)
a(----------2-----------------2---)
D(--------------121---------------)

chorus
e(------44-)(-------------)
b(------44-)(-------------)
g(---------)(-------------)
d(--121----)(--5123-/5123-)
a(--121----)(--5123-/5123-)
D(--121----)(--5123-/5123-)

2nd verse
e(------------4-)(---------<5>-harmonics---)
b(----------4---)(-----------<5>-harmonics-)
g(--2-1-2-1-----)(-------------------------)
d(--------------)(--121--------------------)
a(--------------)(--121--------------------)
D(--------------)(--121--------------------)

solo
e(-------------------3333333322222222-)
b(--4444444433333333------------------)
g(------------------------------------)
d(------------------------------------)
a(------------------------------------)
D(------------------------------------)

last chords
e(--------)
b(--------)
g(--2-----)
d(--2-1-2-)
a(--0-1-2-)
D(----1-2-)
            
Submit corrections

comments powered by Disqus
↑ Back to top | Abandoned Pools Tabs for Mercy Kiss. Lyrics for acoustic guitar and electric guitar. Tablatures and chords are parodies/interpretations of the original songs. You may use it for private study, scholarship, research or language learning purposes only