>
 >
L.V.B.D

L.V.B.D Guitar Tabs

Abandoned Pools - L.V.B.D chords, tabs, tablatures, lyrics

Guitar lessons | Add/correct | Request | Top 50 tabs Artists:  A B C D E F G H I J K L M N O P Q R S T U V W X Y Z 0-9

L.V.B.D Guitar Tabs – Abandoned Pools

CD, Sheet music, Poster

Do you like L.V.B.D? Share with your friends now
TabsTabs v2Tabs v3
-------------------------------------------------------------------------------
                             L.V.B.D. - Abandoned Pools
-------------------------------------------------------------------------------

Tuning:DADGBe

Intro
Part 1
Guitar 2
e|-----------------|
B|-----------------|
G|-----10r---------|X2
D|-7-8-----(8)-7-8-|
A|-----------------|
D|-----------------|
r=let ring

Part 2
Guitar 1
e|----------------|
B|----------------|
G|----------------|X4
D|-0-00-0-00-0-00-|
A|-0-00-0-00-0-00-|
D|-0-00-0-00-0-00-|

Guitar 2
e|-----------------|
B|-----------------|
G|-----10r---------|X4
D|-7-8-----(8)-7-8-|
A|-----------------|
D|-----------------|
r=let ring

Verse 1
(Welcome to the world, My little virgin baby doll...)
Guitar 1
e|-------------|
B|-------------|
G|-------------|X8
D|-0000-33/2/1-|
A|-0000-33/2/1-|
D|-0000-33/2/1-|

Guitar 2
e|--------------------------------------------|
B|--------------------------------------------|
G|-7r--7r--7r--1010-10-7r--7r--771010107r--7r-|
D|--------------------------------------------|
A|--------------------------------------------|
D|--------------------------------------------|
r=let ring

(...Never coming back, I wanna dig for gold...)
Guitar 1
e|------------------|
B|------------------|
G|------------------|X3
D|-00-888-0-00-8876-|
A|-00-888-0-00-8876-|
D|-00-888-0-00-8876-|

Guitar 2
e|--------------------|
B|--------------------|
G|-77107r--7r--7r--7r-|
D|--------------------|
A|--------------------|
D|--------------------|
r=let ring

Chorus 1
(I'll be nothing, forever, forever...)
Guitar 1
e|-----|
B|-----|
G|-----|X8
D|--3--|
A|--3--|
D|--3r-|
r=let ring

Guitar 2
e|-----------------|
B|-----------------|
G|-----10r---------|X8
D|-7-8-----(8)-7-8-|
A|-----------------|
D|-----------------|
r=let ring

(...forever...)
Guitar 1
e|----------------|
B|----------------|
G|----------------|X2
D|-0-00-0-00-0-00-|
A|-0-00-0-00-0-00-|
D|-0-00-0-00-0-00-|

Guitar 2
e|-----------------|
B|-----------------|
G|-----10r---------|X8
D|-7-8-----(8)-7-8-|
A|-----------------|
D|-----------------|
r=let ring

Verse 2
(Jill went up the hill, and gave herself the will...)
Guitar 1
e|-------------|
B|-------------|
G|-------------|X4
D|-0000-33/2/1-|
A|-0000-33/2/1-|
D|-0000-33/2/1-|

Guitar 2
e|----|
B|----|
G|-7r-|X4
D|----|
A|----|
D|----|
r=let ring

(...Now she's unstoppable...)
Guitar 1
e|------------------|
B|------------------|
G|------------------|X3
D|-00-888-0-00-8876-|
A|-00-888-0-00-8876-|
D|-00-888-0-00-8876-|

Guitar 2
e|----|
B|----|
G|-7r-|X4
D|----|
A|----|
D|----|
r=let ring

Chorus 2
(I'll be nothing, forever, forever...)
Guitar 1
e|-----|
B|-----|
G|-----|X8
D|--3--|
A|--3--|
D|--3r-|
r=let ring

Guitar 2
e|-----------------|
B|-----------------|
G|-----10r---------|X8
D|-7-8-----(8)-7-8-|
A|-----------------|
D|-----------------|
r=let ring

(...forever...)
Guitar 1
e|----------------|
B|----------------|
G|----------------|X2
D|-0-00-0-00-0-00-|
A|-0-00-0-00-0-00-|
D|-0-00-0-00-0-00-|

Guitar 2
e|-----------------|
B|-----------------|
G|-----10r---------|X8
D|-7-8-----(8)-7-8-|
A|-----------------|
D|-----------------|
r=let ring

Solo
Guitar 1
e|-------------------------------------------------------------------------|
B|--------8/10/11/13/15/10--8/10/11/10--------8/11-8/11-10/13-10/13-11/15r-|
G|-----10-----------------10-----------10/7-10-----------------------------|
D|-7-8-------------------------------------8-------------------------------|
A|-------------------------------------------------------------------------|
D|-------------------------------------------------------------------------|
r=let ring

Guitar 2
e|-----------------|
B|-----------------|
G|-----10r---------|X8
D|-7-8-----(8)-7-8-|
A|-----------------|
D|-----------------|
r=let ring

Interlude
(Just a mercy kiss, born of emptiness...)
Guitar 1
e|-------------|
B|-------------|
G|-------------|X2
D|-8-----0-----|
A|-8-----0-----|
D|-8r----0r----|
r=let ring

Guitar 2
e|-------|
B|-------|
G|-------|
D|-15r---|
A|-------|
D|-------|
r=let ring

(And you're faking...)
Guitar 1
e|------------------|
B|------------------|
G|------------------|X3
D|-00-888-0-00-8876-|
A|-00-888-0-00-8876-|
D|-00-888-0-00-8876-|

Guitar 2
e|-------|
B|-------|
G|-------|
D|-15r---|
A|-------|
D|-------|
r=let ring

Chorus 3/Outro
(I'll be nothing, forever, forever...)
Guitar 1
e|-----|
B|-----|
G|-----|X8
D|--3--|
A|--3--|
D|--3r-|
r=let ring

Guitar 2
e|-----------------|
B|-----------------|
G|-----10r---------|X8
D|-7-8-----(8)-7-8-|
A|-----------------|
D|-----------------|
r=let ring

(...forever...)
Guitar 1
e|----------------|
B|----------------|
G|----------------|X2
D|-0-00-0-00-0-00-|
A|-0-00-0-00-0-00-|
D|-0-00-0-00-0-00-|

Guitar 2
e|----12-13-12-----------|
B|-10----------10-(8)-10-|
G|-----------------------|X4
D|-----------------------|
A|-----------------------|
D|-----------------------|





Comments


Popular Abandoned Pools tabs & chords
Start Over Bass Tabs
The Remedy 1 Bass Tabs
Blood Tabs
Fluorescein Tabs
L.V.B.D 2 Tabs
Mercy Kiss Tabs
Monster Tabs
The Remedy 1 Tabs
Never Ukulele
The Remedy Ukulele


Song lyrics



↑ Back to top | Tablatures and chords are parodies/interpretations of the original songs. You may use it for private study, scholarship, research or language learning purposes only
© 2014 AZChords.com Contact us | Privacy policy | DMCA | Add/correct tabs | Request tabs | Top 50 tabs