» » »

Abandoned Pools, Goodbye Song Tabs (ver.1)

Artists:  A B C D E F G H I J K L M N O P Q R S T U V W X Y Z # 

Goodbye Song Tabs (ver.1)

Abandoned Pools Tabs
 Rating:
3.8/5 (5 votes)
Goodbye Song lessons Tabs too difficult? Try these video lessons and learn fast
                -------------------------------------------------------------------------------
-------------------------------------------------------------------------------

Tuning: Standard

This song is so incredibly beautiful and it's written by Abandoned Pools.
I think this song should be played at everyone's graduation! The solo was a bit 
tricky to write, but this song was fun to tab out :)
Leave any comments or corrections below and I hope you guys enjoy!

Intro/Chorus
e|-----------------------------------------------------------------------------------|
B|-----------------------------------------------------------------------------------|
G|14----14----13----13---------------------------------------------------------------| 
D|-------------------------11-12----12----12-11--------------------------------------|
A|---12----12----12----12--------12----12--------------------------------------------|
E|-----------------------------------------------------------------------------------|

        F#-            G#-           C#-             D+

Verse 
e|2-22-2222-2222-4-44-4444-4444-4-44-4444-4444-5-55-5555-5555------------------------|
B|2-22-2222-2222-4-44-4444-4444-5-55-5555-5555-7-77-7777-7777------------------------|
G|2-22-4444-4444-4-44-4444-4444-6-66-6666-6666-7-77-7777-7777------------------------|
D|4-44-4444-4444-6-66-6666-6666-6-66-6666-6666-7-77-7777-7777------------------------|
A|4-44-4444-4444-6-66-6666-6666-4-44-4444-4444-5-55-5555-5555------------------------|
E|2-22-2222-2222-4-44-4444-4444------------------------------------------------------|

           A+                     D+                     B-

Pre-Chorus
e|5-55-555-5-555-5555----5-55-555-5-555-5555----2-22-222-2-222-2222------------------|
B|5-55-555-5-555-5555----7-77-777-7-777-7777----3-33-333-3-333-3333------------------|
G|6-66-666-7-777-7777-x2-7-77-777-7-777-7777-x2-4-44-444-4-444-4444------------------|
D|7-77-777-7-777-7777----7-77-777-7-777-7777----4-44-444-4-444-4444------------------|
A|7-77-777-7-777-7777----5-55-555-5-555-5555----2-22-222-2-222-2222------------------|
E|5-55-555-5-555-5555----------------------------------------------------------------|

           C#-                 D+                  E+

e|4-44-444-4-444-4444-5-55-555-5-555-5555-7-77-777-7-777-7777------------------------|
B|5-55-555-5-555-5555-7-77-777-7-777-7777-9-99-999-9-999-9999------------------------|
G|6-66-666-6-666-6666-7-77-777-7-777-7777-9-99-999-9-999-9999------------------------|
D|6-66-666-6-666-6666-7-77-777-7-777-7777-9-99-999-9-999-9999------------------------|
A|4-44-444-4-444-4444-5-55-555-5-555-5555-7-77-777-7-777-7777------------------------|
E|-----------------------------------------------------------------------------------|

play the Intro 

Bridge is tremelo picked 

e|19191919-20202020-16161616-17171717------------------------------------------------|
B|-----------------------------------------------------------------------------------|
G|-----------------------------------------------------------------------------------| 
D|-----------------------------------------------------------------------------------|
A|-----------------------------------------------------------------------------------|
E|-----------------------------------------------------------------------------------|

play Intro again

Bridge

Instrumental Solo
e|---------------------------------------------------------------------12------------|
B|14-12----12----14----14-------------------14-12----12----14----14----------15-14---|
G|------11----11----11----11-13-11-13-11-14-------11----11----11----11----13---------|
D|-----------------------------------------------------------------------------------|
A|-----------------------------------------------------------------------------------|
E|-----------------------------------------------------------------------------------|

e|-----------------------------------------------------------------------------------|
B|14-12----12----14----14-------------------14-12----12----14----14------------------|
G|------11----11----11----11-13-11-13-11-14-------11----11----11----11-13-11-13-14---|
D|-----------------------------------------------------------------------------------|
A|-----------------------------------------------------------------------------------|
E|-----------------------------------------------------------------------------------|

e|12-------12----12-12-------10-------------12-------12-12-12-------10---------------|
B|-----------------------------------------------------------------------------------|
G|---13-14----13-------11-13----11-13-13-14----13-14----------11-13----11-13-11-13-14|
D|-----------------------------------------------------------------------------------|
A|-----------------------------------------------------------------------------------|
E|-----------------------------------------------------------------------------------|

back to Intro


************************************

| /   slide up
| \   slide down
| h   hammer-on
| p   pull-off
| ~   vibrato
| +   harmonic
| x   Mute note
| b   Bend
| pb  Pre-bend
| br  Bend release
| pbr Pre-bend release
| brb Bend release bend

************************************
            
Submit corrections

comments powered by Disqus
↑ Back to top | Abandoned Pools Tabs for Goodbye Song. Lyrics for acoustic guitar and electric guitar. Tablatures and chords are parodies/interpretations of the original songs. You may use it for private study, scholarship, research or language learning purposes only