» » »

Abandon All Ships, Infamous Tabs (ver.1)

Artists:  A B C D E F G H I J K L M N O P Q R S T U V W X Y Z # 

Infamous Tabs (ver.1)

Abandon All Ships Tabs
 Rating:
4/5 (4 votes)
Infamous lessons Tabs too difficult? Try these video lessons and learn fast
                -------------------------------------------------------------------------------
             Infamous feat. A-Game - Abandon All Ships
-------------------------------------------------------------------------------

Tuning: Drop D

So this entire song pretty much has 3 parts played Chorus, Verse, and Outro.
All of this is extremely easy to play. It doesn't have to be played in Drop D, 
that's just the tuning I used. Leave any comments or e-mail any corrections.

Chorus/Intro x2
e|-------------------------------------------------------------------------|
B|-------------------------------------------------------------------------|
G|-------------------------------------------------------------------------|
D|--11111111-44444444-88888888-88888888------------------------------------|
A|--11111111-44444444-88888888-88888888------------------------------------|
D|--11111111-44444444-88888888-88888888------------------------------------|

Pre-Verse
e|--------------------------------------------|
B|--------------------------------------------|
G|--------------------------------------------|
D|--1-11-11110--------------------------------|
A|--1-11-11110--------------------------------|
D|--1-11-11110--------------------------------|
PM  . .. .....


Verse 1 x4
e|--------------------------------------------|
B|--------------------------------------------|
G|--------------------------------------------|
D|--1-11-11110--------------------------------|
A|--1-11-11110--------------------------------|
D|--1-11-11110--------------------------------|
"Born and raised original. You're just TV typical..."


Chorus x2
e|-------------------------------------------------------------------------|
B|-------------------------------------------------------------------------|
G|-------------------------------------------------------------------------|
D|--11111111-44444444-88888888-88888888------------------------------------|
A|--11111111-44444444-88888888-88888888------------------------------------|
D|--11111111-44444444-88888888-88888888------------------------------------|
"Blinding light where I go. I look down from the top and its crowded, below"


Verse 2 x8
e|----------------------------|
B|----------------------------|
G|----------------------------|
D|--1-11-11110----------------|
A|--1-11-11110----------------|
D|--1-11-11110----------------|
"Rather be hated for who I am, then loved for who I'm not..."


Chorus x4
e|-------------------------------------------------------------------------|
B|-------------------------------------------------------------------------|
G|-------------------------------------------------------------------------|
D|--11111111-44444444-88888888-88888888------------------------------------|
A|--11111111-44444444-88888888-88888888------------------------------------|
D|--11111111-44444444-88888888-88888888------------------------------------|
"Blinding light where I go. I look down from the top and its crowded, below"


Rap Bridge
e|--------|
B|--------|
G|--------|
D|--------|
A|--------|
D|--------|
"They only see us when they look up..."


Chorus x4
e|-------------------------------------------------------------------------|
B|-------------------------------------------------------------------------|
G|-------------------------------------------------------------------------|
D|--11111111-44444444-88888888-88888888------------------------------------|
A|--11111111-44444444-88888888-88888888------------------------------------|
D|--11111111-44444444-88888888-88888888------------------------------------|
"Blinding light where I go. I look down from the top and its crowded, below"


Outro x8
e|------------------|
B|------------------|
G|------------------|
D|--1-11-11110-0-0--|
A|--1-11-11110-0-0--|
D|--1-11-11110-0-0--|
"Forever lonely crew!!!"

************************************

| /   slide up
| \   slide down
| h   hammer-on
| p   pull-off
| ~   vibrato
| +   harmonic
| x   Mute note
| b   Bend
| pb  Pre-bend
| br  Bend release
| pbr Pre-bend release
| brb Bend release bend

************************************
            
Submit corrections

comments powered by Disqus
↑ Back to top | Abandon All Ships Tabs for Infamous. Lyrics for acoustic guitar and electric guitar. Tablatures and chords are parodies/interpretations of the original songs. You may use it for private study, scholarship, research or language learning purposes only