» » »

Abandon, Providence Tabs (ver.1)

Artists:  A B C D E F G H I J K L M N O P Q R S T U V W X Y Z # 

Providence Tabs (ver.1)

Abandon Tabs
 Rating:
4/5 (4 votes)
Providence lessons Tabs too difficult? Try these video lessons and learn fast
1
                
Intro
e|-------------------5-5------------|
B|-8-8-6-6-8-8-6-8-8-----6-6-8-8-6--|
G|----------------------------------|
D|----------------------------------|
A|----------------------------------|
E|----------------------------------| x4

Verse 1
D2
A man stands alone arms across his chest,
Bb2
His heart pounding through his bones.
D2                                 Bb2
Denial wasn't supposed to be this way.
His passion...way.
e|------------------------------------------------------|
B|-3-3-6-3-3-6-3-3-6-3----------------------------------|
G|---------------------5-3-----------------------3-5-3--|
D|-------------------------5-5-5-3-5-5-3-5-5-3-5--------|
A|------------------------------------------------------|
E|------------------------------------------------------| x2

Chorus
(Hold 3)                  C2
Well only his answer would tell the story.
D2                                 Bb2
Three times were all he had to say yes
(Bb2)
Say yes say yea yea yea 
   F2                      C2
But denial seemed so beautiful
D2                                 Bb2
Three times were all he had to say yes
(Bb2)
Say yes say yea yea yea
   F2                        D2 C2
But providence took its hold 

Verse 2
D2
Tears drown his eyes,
                        F2
A puddle of shame at his feet
      D2                      Bb2
As the reflection of guilt overwhelms a broken man.
Dissent was...me.
e|------------------------------------------------------|
B|-3-3-6-3-3-6-3-3-6-3----------------------------------|
G|---------------------5-3-----------------------3-5-3--|
D|-------------------------5-5-5-3-5-5-3-5-5-3-5--------|
A|------------------------------------------------------|
E|------------------------------------------------------| x2

Chorus

Bridge
D2
An electric pulse you can't escape
C2
A force that rules the human race
Bb2              C2
Hold the hand of Providence
D2
An electric pulse you can't escape
C2
A force that rules the human race
Bb2                                    
Tonight the stars tell no fortunes,
C2
Tell no fortunes, they tell no fortunes

Chorus

Outro
C2
Took took took!
Took it's hold. Hey! 
D2 C2 Bb2    D2 C2 Bb2    D2 C2 Bb2
Three times, Three times, Three times
            
Submit corrections

comments powered by Disqus
↑ Back to top | Abandon Tabs for Providence. Lyrics for acoustic guitar and electric guitar. 1 Tablatures and chords are parodies/interpretations of the original songs. You may use it for private study, scholarship, research or language learning purposes only