» » »

My Way (corrected) Tabs (ver.1)

Artists:  A B C D E F G H I J K L M N O P Q R S T U V W X Y Z # 

My Way (corrected) Tabs (ver.1)

Aaron Pritchett
Rating:
0/5 (0 votes)

Hard to play? Try these video lessons and learn fast.
                h = hammer-on
p = pull-off
br= bend/release


                      B (strum)             A (strum)
E-----------------------------------------------------
B-----------------------------------------------------
G-----------------------------------------------------
D---------------------------------------2-------------
A------2--4br-2-----2---------------2h4----0----------
E--2h4----------4p2-----------------------------------

          E (strum)           B
E-----------------------------------------------------
B-----------------------------------------------------
G-----------------------------------------------------
D-----------------------------------------------------
A--2----------------------------2-- -(real guitar tuned down here,
E----2br-0--------------------2----     this is an octave up)

  B
E-----------------------
B-----------------------
G-----------------------
D-----------------------
A------2-2--------------
E--2h4--4---------------

       There's a kind of lovin'.....


            
Hard to play? Try these video lessons and learn fast. | Correct




comments powered by Disqus
↑ Back to top | Tablatures and chords are parodies/interpretations of the original songs. You may use it for private study, scholarship, research or language learning purposes only