>
 >
Right Here

Right Here Guitar Tabs

Aaron Lewis - Right Here chords, tabs, tablatures, lyrics

Guitar lessons | Add/correct | Request | Top 50 tabs Artists:  A B C D E F G H I J K L M N O P Q R S T U V W X Y Z 0-9

Right Here Guitar Tabs – Aaron Lewis

CD, Sheet music, Poster

Do you like Right Here? Share with your friends now
Tabs
-------------------------------------------------------------------------------
-------------------------------------------------------------------------------

It looks fairly easy so i decided to tab it out. It was played on a 12 string
guitar but you still play it on a regular ol' six string. I think this is
pretty much right but if anyone else can improvise on it then that would be
awesome!

Tuning: Half-Step Down


He's uses a few basic chords:

0   0    0    0     0
0   0    0    0     0
4   7    0    0     0
4   7    4    5     7
2   5    4    5     5
0   0    2    3     5


If NONE OF THIS MAKES SENSE.... try pick strumming,... think of their Sober
LIVE acoustic cover.....



Ok for the intro, he plays the first chord used in the original song

e|-------------------0-----------------------------------0-------------------|
B|-------------------------0----------------------------------0--------------|
G|--------4---------------------0-----------4----------------------4---------|
D|-------------4----------------------------------4--------------------------|
A|----2---------------------------------2------------------------------------|
E|---------------------------------------------------------------------------|


(USE YOUR MIDDLE FINGER TO GET THE 3rd fret)
e|--------------------0-------------------------------------------------0----|
B|-------------------------0-------------------------------------------------|
G|---------4-------------------4------------------------------4--------------|
D|--------------4-------------------------------------------------4----------|
A|----------------------------------------------0--0--0-0-2------------------|
E|----3----------------------------------2-----------------------------------|

e|---------------------------------------------------------------------------|
B|------0--------------------------------------------------------------------|
G|----------4----------------------------------------------------------------|
D|----------------4----------------------------------------------------------|
A|----------------------2------------------0-------2-------------------------|
E|---------------------------------------------------------------------------|


Then start over again for the verse


Chorus:


Ok for the chorus,... he'll use that pick strumming thing but with these 
chords. I dont have to tab this part out cuz if you see the video you'll get
the pattern.

e|------------0-------------0------------0-----------0-----------------------|
B|------------0-------------0------------0-----------0-----------------------|
G|-------7----0-------------0-----4------0-----------0-----------------------|
D|-------7------------4-----------4-------------5----------------------------|
A|-------5------------4-----------2-------------5----------------------------|
E|--------------------2-------------------------3----------------------------|

NOTE* this above isnt the tab, just the chords Aaron uses for the chorus>



Bridge:


For the bridge he uses only these two chords




e|---------------------------------------------------------------------------|
B|----------------(so it goes like this)-------------------------------------|
G|----4-----------------|--------------------4-------------------------------|
D|----2--------5--------|---------------2-------------------5----------------|
A|----2--------5--------|-------2--------------------5---5-------------------|
E|-------------3--------|---------------------------3------------------------|

or you can just downstrum the chords

Then the rest is,.... 

Verse x1
Chorus til the song ends


I know it may not be right but thats where you guys can come in and tell what
you got out of it.......



| /  slide up
| \  slide down
| h  hammer-on
| p  pull-off
| ~  vibrato
| +  harmonic
| x  Mute note
====================================================================





Comments


Popular Aaron Lewis tabs & chords
75 Chords
75 1 Chords
Grandaddys Gun Chords
Party In Hell 1 Chords
State Lines Chords
Bleed Tabs
Outside Tabs
Grandaddys Gun Ukulele
Patience Cover Ukulele
Red White And Blue Ukulele


Song lyrics



↑ Back to top | Tablatures and chords are parodies/interpretations of the original songs. You may use it for private study, scholarship, research or language learning purposes only
© 2014 AZChords.com Contact us | Privacy policy | DMCA | Add/correct tabs | Request tabs | Top 50 tabs