» » »

Outside Tabs (ver.3)

Artists:  A B C D E F G H I J K L M N O P Q R S T U V W X Y Z # 

Outside Tabs (ver.3)

Aaron Lewis
Rating:
0/5 (0 votes)

Hard to play? Try these video lessons and learn fast.
                Verse

  D5                C5                   F5               G5
--x-x-x-x-x-x--x-x--x-x-x-x--x-x--x-x-x--x-x-x--x-x--x-x--x-x-x-x--x-x--
--x-x-x-x-x-x--x-x--x-x-x-x--x-x--x-x-x--x-x-x--x-x--x-x--x-x-x-x--x-x--
--7-7-7-x-x-7--x-x--5-5-5-5--x-x--5-5-5--x-x-x--x-x--x-x--x-x-x-x--x-x--
--7-7-7-x-x-7--x-x--5-5-5-5--x-x--5-5-5--3-3-3--x-x--3-x--5-5-5-5--x-x--
--5-5-5-x-x-5--x-x--3-3-3-3--x-x--3-3-3--3-3-3--x-x--3-x--5-5-5-5--x-x--
--x-x-x-x-x-x--x-x--x-x-x-x--x-x--x-x-x--1-1-1--x-x--1-x--3-3-3-3--x-x--

Chourus

  D
--2-2-----x-x-----x-x-----3-3--
--3-3-----1-1-----1-1-----3-3--
--2-2-----2-2-----0-0-----0-0--
--0-0-----3-3-----2-2-----0-0--
--x-x-----0-0-----3-3-----2-2--
--x-x-----x-x-----x-x-----3-3--

have fun
            
Hard to play? Try these video lessons and learn fast. | Correct




comments powered by Disqus
↑ Back to top | Tablatures and chords are parodies/interpretations of the original songs. You may use it for private study, scholarship, research or language learning purposes only