» » »

Bonghits For Breakfast Tabs (ver.2)

Artists:  A B C D E F G H I J K L M N O P Q R S T U V W X Y Z # 

Bonghits For Breakfast Tabs (ver.2)

Aaron Lewis
Rating:
0/5 (0 votes)

Hard to play? Try these video lessons and learn fast.
                

                       Title: Bonghits For Breakfast


                       Standard Tuning 1/2 Step Down
                              Eb Ab Db Gb Bb Eb


   Verse

Eb ------0--------0-------0--------0-------0--------0-----------------------|
Bb ------8--------8-------8--------8-------8--------8-----------------------|
Gb ------7--------7-------7--------7-------7--------7-----------------------|
Db -------------------------------------------------------------------------|
Ab ----7----------------7----------------7------------7-----------------5h7-|
Eb ----0-----0-66-----6-0-----0-66-----6-0-----0-66---0-5h7-5h7-5h7-5h7-----|


   Chorus

Eb -----------------------------------------0-------0-----0-------0---|
Bb ------8-8-888-8-8-88-8-8-8-8-8-88-8-8----8-------8-----8-------8---|
Gb ------7-7-777-7-7-77-7-7-7-7-7-77-7-7----7-------7-----7-------7---|
Db ------7-7-777-7-7-77-7-7-7-7-7-77-7-7------------------------------|
Ab ------0-0-000-0-0-00-0-0-0-0-0-00-0-0--7--------------7------------|
Eb --00-----------------------------------0----0-66----6-0----0-66----|

Eb ------------------------------------------------------------------|
Bb ------8-8-888-8-8-88-8-8-8-8-8-88-8-8--7-77777777-7-8-------------|
Gb ------7-7-777-7-7-77-7-7-7-7-7-77-7-7--6-66666666-6-7-------------|
Db ------7-7-777-7-7-77-7-7-7-7-7-77-7-7--5-55555555-5-6-------------|
Ab ------0-0-000-0-0-00-0-0-0-0-0-00-0-0--0-00000000-0-0-------------|
Eb ---0--------------------------------------------------------------|

   NOTE: Listen to song for the strum pattern during the chorus.
            
Hard to play? Try these video lessons and learn fast. | Correct




comments powered by Disqus
↑ Back to top | Tablatures and chords are parodies/interpretations of the original songs. You may use it for private study, scholarship, research or language learning purposes only