» » »

Aaron Gillespie, We Were Made For You Tabs (ver.1)

Artists:  A B C D E F G H I J K L M N O P Q R S T U V W X Y Z # 

We Were Made For You Tabs (ver.1)

Aaron Gillespie Tabs
 Rating:
4/5 (9 votes)
We Were Made For You lessons Tabs too difficult? Try these video lessons and learn fast
1
                -------------------------------------------------------------------------------
-------------------------------------------------------------------------------

Tuning: Standard
Intro/Verse/Outro        (don't play 4-0 on verse)
e|-x---x----x-----x---x---------------x--------------|
B|-x---x----x-----x---x---------------x--------------|
G|-7---11---6----11---2---------------2--------------|
D|-0---0----0-----0---0---4-0---------0----4-0-------|
A|-x---x----x-----x---x--------4-0----x---------4-0--|
E|-7---10---5----10---3---------------3--------------|

Pre-Chorus
e|--x---x------------------------------------------------------------------------|
B|--x---x------------------------------------------------------------------------|
G|--2---2------------------------------------------------------------------------|
D|--0---0------------------------------------------------------------------------|
A|--x---x------------------------------------------------------------------------|
E|--2---3------------------------------------------------------------------------|

Chorus             (..."just for You"..)             (chorus ends with)
e|--x---x---x-------------x----x--------------------------x---------------------------|
B|--3---3---x-------------x----x--------------------------x---------------------------|
G|--2---2---2-------------11---6--------------------------2---------------------------|
D|--0---0---0-------------0----0--------------------------0---------------------------|
A|--0---x---x-------------x----x--------------------------x---------------------------|
E|--x---2---3-------------10---5--------------------------3---------------------------|

Bridge
e|--x-----x---x----------------------------------------------------------------------|
B|--x-----x---x----------------------------------------------------------------------|
G|--2-----6---2----------------------------------------------------------------------|
D|--0-----0---0----------------------------------------------------------------------|
A|--x-----x---x----------------------------------------------------------------------|
E|--3-----5---2----------------------------------------------------------------------|
            
Submit corrections

comments powered by Disqus
↑ Back to top | Aaron Gillespie Tabs for We Were Made For You. Lyrics for acoustic guitar and electric guitar. 1 Tablatures and chords are parodies/interpretations of the original songs. You may use it for private study, scholarship, research or language learning purposes only