» » »

I'm All About You Chords (ver.1)

Artists:  A B C D E F G H I J K L M N O P Q R S T U V W X Y Z # 

I'm All About You Chords (ver.1)

Aaron Carter
Rating:
5/5 (3 votes)

Tabs too difficult? Try these video lessons and learn fast.
                Im all about you
Aaron carter
Dedicated to Radinna Mae Nablea

Tuning: Standard

Intro: C-G-Am-G
|------3-----1------0--------------0-------1-------3------1-------0-----------------|
|----------------------------3---------------------------------------------------3--|
|-----------------------------------------------------------------------------------|
|-----------------------------------------------------------------------------------|
|------3-----------------------------------------------3----------------------------|
|-----------------------------------------------------------------------------------|

Verse1:
F                       G             Am
There's somethin' I've got to say
F
You're always with me
          G               Am
Even though, you're far away
F          G         Am
Talkin to you on my cell
          F
Just the sound of your voice
   E
Makes my heart melt
    Am             G
Oh girl, well it's true


Chorus:
              C
I'm all about you
                      G
I'm all about us
                        F
No baby, you never
                                  G
Have to question my love
                    C
And every night
                         G
there's a new crowd
                F                                G
But it's always you I'm singing about
                    Am
There is only one
             F                        Dm
These words are going out to
    G                  C
Oh girl, I'm all about you

|------3-----1------0--------------0-------1-----------|
|----------------------------3-------------------------|
|------------------------------------------------------|
|------------------------------------------------------|
|------3-----------------------------------------------|
|------------------------------------------------------|

Verse2: (Do the same chords on verse1)
I know you worry sometimes
Some other girl will
Make me forget you're mine
There's not a doubt in this world
That anyone could take
The place of my number one girl
It's true

(Repeat Chorus)

Bridge:
Bb
When I close my eyes I can see you
C
It´s like your right here
Bb
And this feeling only getting stronger
C
Your with me everywhere

(Repeat Chorus 1 Fret Higher)
Questions and suggestions:
Cell no.: 09155499854
            
Tabs too difficult? Try these video lessons and learn fast.


comments powered by Disqus
↑ Back to top | Tablatures and chords are parodies/interpretations of the original songs. You may use it for private study, scholarship, research or language learning purposes only