» » »

Aaron, Bingotako Tabs (ver.1)

Artists:  A B C D E F G H I J K L M N O P Q R S T U V W X Y Z # 

Bingotako Tabs (ver.1)

Aaron Tabs
 Rating:
4/5 (4 votes)
Bingotako lessons Tabs too difficult? Try these video lessons and learn fast
                Tab dude: ezequiel asturga
Tuning: 10 half step down (Eb,Ab,Db,Gb,Bb,Eb)

s <----slide
h <----hammer-on
p <----pull-off
~ <----vibrato(mild)


Dec.20,'06

i'm 999.9% know of my tab, so if you mapababae o mapabakla spot a mistake,
----------------------------------------------------------------------------

intro:(Gtrs.1,2)
    C                     Bb C
Eb|----------------------------|
Bb|----------------------------| (for gtr. 1)-->continue this tab unil
Gb|-6-6--6-6-6--6-6-6--6-6s4s6-| pre-chorus
Db|-6-6--6-6-6--6-6-6--6-6s4s6-| (for gtr. 2)-->after doing this riff 2x,
Ab|-4-4--4-4-4--4-4-4--4-4s2s4-| do this next riff
Eb|----------------------------|

                C#                    Eb C#
            Eb|----------------------------|
            Bb|----------------------------| then continue
gtr.2--->   Gb|-6-6--6-6-6--6-6-6--6-6s9s6-| the fisrt part of the 
            Db|-6-6--6-6-6--6-6-6--6-6s9s6-| intro once
            Ab|-4-4--4-4-4--4-4-4--4-4s7s4-|
            Eb|----------------------------|

----------------------------------------------------------------------------
verse1:(gtr.2)
    C           Eb         F
Eb|--------------------------------| "tama, walang lagalagan at.."
Bb|--------------------------------|
Gb|-6-6--6-6-6--9-9-9--9-9s11-11-11|
Db|-6-6--6-6-6--9-9-9--9-9s11-11-11|
Ab|-4-4--4-4-4--7-7-7--7-7s-9--9--9|
Eb|--------------------------------|
                                        do this 2x
    C                     Bb C
Eb|----------------------------|
Bb|----------------------------|
Gb|-6-6--6-6-6-----------------|
Db|-6-6--6-6-6--2-2-2--2-2-2-2-|
Ab|-4-4--4-4-4--2-2-2--2-2-2-2-|
Eb|-------------0-0-0--0-0-0-0-|

----------------------------------------------------------------------------
pre-chorus:(Gtrs.1,2)
    F
Eb|-----------------------------| "isnag mahabang panaghinip...
Bb|-----------------------------|
Gb|-----------------------------|
Db|-4--4--4-4-4--4--4-4--4--4-4-|
Ab|-4--4--4-4-4--4--4-4--4--4-4-|
Eb|-2--2--2-2-2--2--2-2--2--2-2-|

    
     di  na  hi hin to.......................ooh"
     Eb  D   B   Ab C#
Eb|----------------------------------------------|
Bb|----------------------------------------------|
Gb|-s9--s8--s5------7--7-7-7-7-7-7-7-7-7-7-7-7-7-|
Db|-s9--s8--s5--s7--7--7-7-7-7-7-7-7-7-7-7-7-7-7-|
Ab|-s7--s6--s3--s7--5--5-5-5-5-5-5-5-5-5-5-5-5-5-|
Eb|-------------s5-------------------------------|

    D
Eb|-----------------------------|
Bb|-----------------------------|
Gb|-8-8-8-8-8-8-8-8-8-8-8-8-8-8-|
Db|-8-8-8-8-8-8-8-8-8-8-8-8-8-8-|
Ab|-6-6-6-6-6-6-6-6-6-6-6-6-6-6-|
Eb|-----------------------------|

----------------------------------------------------------------------------
chorus:(Gtrs.1,2)
    Eb            G              F              Ab
Eb|------------------------------------------------------------|
Bb|------------------------------------------------------------|
Gb|------------------------------------------------------------|
Db|-2222222222222-66666666666666-44444444444444-77777777777777-|
Ab|-2222222222222-66666666666666-44444444444444-77777777777777-|
Eb|-0000000000000-44444444444444-22222222222222-55555555555555-|

----------------------------------------------------------------------------
pre-verse:
(bass)
Gb|---------------------------------|
Db|---------------------------------| x2
Ab|-4-4-4-2-2-2-2-2-----------------|
Eb|-----------------4-4-4-2-2-2-2-2-|

(guitar2)
    C
Eb|----------"na na..."-|
Bb|-6-------------------|
Gb|-6---------6-------6-| gagawin ito sa pangalawang riff ng bass 
Db|-6-------6-------6---|
Ab|-4-----4-------4-----|
Eb|---------------------|

----------------------------------------------------------------------------
verse:(Gtrs.1,2)
    C    G    Bb   C    G    Bb   C    G    Bb
Eb|---------------------------------------------| "teka, kaya ba natin to.."
Bb|---------------------------------------------|
Gb|-6-6-------4-4--6-6-------4-4--6-6-------4-4-|
Db|-6-6--6-6--4-4--6-6--6-6--4-4--6-6--6-6--4-4-|
Ab|-4-4--6-6--2-2--4-4--6-6--2-2--4-4--6-6--2-2-|
Eb|------4-4------------4-4------------4-4------|
    Ab
Eb|---------------|"tuloy, tuloy!!!"
Bb|---------------|
Gb|---------------|
Db|-7--7--7--7--7-|
Ab|-7--7--7--7--7-|
Eb|-5--5--5--5--5-|

repeat chorus 2x

----------------------------------------------------------------------------
pre-solo:(bass)

Gb|---------4-------6-6-|
Db|-------6---6---------| continue this riff throughout the solo...
Ab|-4-4-4---------4-----| but on the clear version of the song, 
Eb|---------------------| there is a pause on the second time
                          this is played.
----------------------------------------------------------------------------
Solo:

Gtr.2                              

Eb|-----------------------------------------------------|
Bb|-s9-9h10p9-7-9-7-------------------------------------|
Gb|-----------------9-11-9-8-9-8-6-5-5h6~~----4---4---4-|
Db|---------------------------------------------6---6---|
Ab|-----------------------------------------------------|
Eb|--------------------------------------------|--------|
                                               |Gtr.1
                                               |--------|
                        sasbay ang guitar1     |--------|
                        sa bass dito           |--------|
                                               |---2-2--|
                                               |-4------|
                                               |--------|

---------------------------------------------------------------------------
Gtr.2

Eb|-----------------------------------------------------------|
Bb|-----------------------------------------------------------|
Gb|-------6---6-4-6---4-6-4-6---6s8---------4---4-2-4---------|
Db|-------------------------------------------------------4-4-|
Ab|-4-4-4-----------------------------4-4-4-------------2-----|
Eb|-----------------------------------------------------------|

Gtr.1
    C                                C
Eb|-----------------------------------------------------------|
Bb|-----------------------------------------------------------|
Gb|---------6---------------------------------6---------------|
Db|-------6---6---------4-4-----------------6---6---------4-4-|
Ab|-4-4-4-------------2---------------4-4-4-------------2-----|
Eb|-----------------------------------------------------------|

----------------------------------------------------------------------------
Continue:

Gtr.2

Eb|-----------------------------------------------------------------|
Bb|-------------------------------------------5-5-7-7s9-9-10s12-12~-|
Gb|---------------------------------4s6-6~--------------------------|
Db|-2s4-4-4-4-4-4-4-4-4-4-4-4-4-4-2---------------------------------|
Ab|-----------------------------------------------------------------|
Eb|-----------------------------------------------------------------|

Gtr.1
    F                               G#
Eb|-----------------------------------------------------------------|
Bb|-----------------------------------------------------------------|
Gb|-----------------------------------------------------------------|
Db|-4-4-4-4-4-4-4-4-4-4-4-4-4-4-4-4-7-7-7-7-7-7-7-7-7-7-7-7-7-7-7-7-|
Ab|-4-4-4-4-4-4-4-4-4-4-4-4-4-4-4-4-7-7-7-7-7-7-7-7-7-7-7-7-7-7-7-7-|
Eb|-2-2-2-2-2-2-2-2-2-2-2-2-2-2-2-2-5-5-5-5-5-5-5-5-5-5-5-5-5-5-5-5-|
----------------------------------------------------------------------------
Pre-Chorus:

guiatr 2:

Eb|-------------------|
Bb|-17s16-17s16-17s16-| just listen to how it's plucked
Gb|-------------------| (ang dami kasi eh!!!!)
Db|-------------------|
Ab|-------------------|
Eb|-------------------|

Gtr.1
    C                G
Eb|----------------------------------|"ating tinig..."
Bb|----------------------------------|
Gb|-6-6-6-6-6-6-6-6------------------|    x3
Db|-6-6-6-6-6-6-6-6--6-6-6-6-6-6-6-6-|
Ab|-4-4-4-4-4-4-4-4--6-6-6-6-6-6-6-6-|
Eb|------------------4-4-4-4-4-4-4-4-|



----------------------------------------------------------------------------
next part:
    F                       G#
Eb|------------------------------------------------|"heto na tayo!!!.."
Bb|------------------------------------------------|
Gb|------------------------------------------------|
Db|-4--4--4--4--4--4--4--4--7--7--7--7--7--7--7--7-|
Ab|-4--4--4--4--4--4--4--4--7--7--7--7--7--7--7--7-|
Eb|-2--2--2--2--2--2--2--2--5--5--5--5--5--5--5--5-|

repeat chorus, this riff will be played at the second
part of the chorus... "wag kang bibitiw bigla,pikit ang iyong mga mata..."
Eb|--------------------------------------------------------|
Bb|--------------------------------------------------------|
Gb|-9--9-9--9--9-9--9s11-11-11-11--13--14-13--14-13--14-13-|
Db|-x--x-x--x--x-x--xs-x--x--x--x--xx--xx-xx--xx-xx--xx-xx-|
Ab|-7--7-7--7--7-7--7s-9--9--9--9--11--12-11--12-11--12-11-|
Eb|--------------------------------------------------------|

----------------------------------------------|
-18-18-18-18-18-18-18-18-18-18-18-18-18-18-18-|
-xx-xx-xx-xx-xx-xx-xx-xx-xx-xx-xx-xx-xx-xx-xx-|
-16-16-16-16-16-16-16-16-16-16-16-16-16-16-16-|
----------------------------------------------|
----------------------------------------------|

----------------------------------------------------------------------------
outro:

guitar 1 plays the chords from the chorus
(Eb,G,F,Ab),while guitar 2 plays the above riff
2 times.

then,
guitar 2 does this outro:

Eb|-------------------------|
Ab|-------------------------|
Db|-------------------------|
Gb|-x-x-x-x-x-x-x-x-x-x-x-x-|
Bb|-4-4-2-4-2-4-2-4-2-4s6-6-|
Eb|-x-x-x-x-x-x-x-x-x-x-x-x-|

sabay ung dalawa...
    Eb
Eb|----|
Ab|----|
Db|----|
Gb|-2~-|
Bb|-2~-|
Eb|-0~-|
----------------------------------------------------------------------------

Take Note Pipol!

For the lead guitar, you can use the higher form(tone)
of the chords in the chorus (Eb,G,F,Ab) ito un:

     Eb         G           F           G#
Eb|-----|  Eb|------|  Eb|------|  Eb|------|
Bb|-----|  Bb|------|  Bb|------|  Bb|------|
Gb|--9--|  Gb|--13--|  Gb|--11--|  Gb|--14--|
Db|--9--|  Db|--13--|  Db|--11--|  Db|--14--|
Ab|--7--|  Ab|--11--|  Ab|--9---|  Ab|--12--|
Eb|-----|  Eb|------|  Eb|------|  Eb|------|
----------------------------------------------------------------------------

well, that's it!!! rate nyo naman plees(=)!

lyrics:
 
Verse1:

Mali, merong isang bingot at 
sama-samang
hahanapin c aaron at
tayo'y magpapahangin sa
isang daluyong na maghahatid sa atin sa,

Pre-chorus:

isang mahabang pagtitikol,
di na hihinto!!!

Chorus:

Wag kang bibingot bakla,
wag kang bibingot bakla,
higpitan lang ang iyong nguso
maglalayag patungong georgetown!

na na....

Verse2:

Teka, kaya ba natin c aaron?(inah!)
kung hindi na'ay aakayin at itatayo...
'yun yon!
kaya hanggang ngayon,
bingot! bingot! bingot! bingot!!!(10x)

Chorus:

Wag kang bibingot bakla,
wag kang bibingot bakla,
higpitan lang ang iyong nguso
maglalayag patungong georgetown!

wag kang bibingot bakla,
tikom ang iyong mga bibig!
higpitan lang ang iyong nguso
maglalayag patungong georgetown!

Bridge
nguso ni eron!, nguso ni eron!,
abot langit!(sobrang lapad)

heto na siya!!!(heto na siya!!!)
heto na siya!!!!!(heto na siya!!!!)

Chorus:

Wag kang bibingot bakla,
wag kang bibingot bakla,
higpitan lang ang iyong nguso
maglalayag patungong georgetown!

wag kang bibingot bakla,
tikom ang iyong mga bibig!
higpitan lang ang iyong nguso
maglalayag patungong georgetown!

Outro:

heto na siya!!!(heto na sita!!!)
heto na siya!!!!!(heto na siya!!!!)

wahhhhhhhhhhoooo!!!!
            
Submit corrections

comments powered by Disqus
↑ Back to top | Aaron Tabs for Bingotako. Lyrics for acoustic guitar and electric guitar. Tablatures and chords are parodies/interpretations of the original songs. You may use it for private study, scholarship, research or language learning purposes only