» » »

Aaroh, Gharoli Tabs (ver.1)

Artists:  A B C D E F G H I J K L M N O P Q R S T U V W X Y Z # 

Gharoli Tabs (ver.1)

Aaroh Tabs
 Rating:
4/5 (5 votes)
Gharoli lessons Tabs too difficult? Try these video lessons and learn fast
                Aaroh - Gharoli

Tuning: Standard (EADGBE)

-2~--3-2~---2-2-2--3-2~-|
-2~--3-2~---2-2-2--3-2~-|
-3~--4-3~---3-3-3--4-3~-|
-4~--5-4~---4-4-4--5-4~-|
-4~--5-4~---4-4-4--5-4~-|
-2~--3-2~---2-2-2--3-2~-|

Now here's the exciting part!

-----------------------|
-----------------------|
-----------------------|
-2-4-4-4-4-5-4-4-4-4---|
-2-4-4-4-4-5-4-4-4-4---|                               
-0-2-2-2-2-3-2-2-2-2---|

That coveres the whole song. The exciting part is also used as chorus.
Aaroh was a great band once. But not now. Espacially after Nabeel left.
Please rate 5!
            
Submit corrections

comments powered by Disqus
↑ Back to top | Aaroh Tabs for Gharoli. Lyrics for acoustic guitar and electric guitar. Tablatures and chords are parodies/interpretations of the original songs. You may use it for private study, scholarship, research or language learning purposes only