» » »

We Need A Resolution Tabs (ver.1)

Artists:  A B C D E F G H I J K L M N O P Q R S T U V W X Y Z # 

We Need A Resolution Tabs (ver.1)

Aaliyah
Rating:
0/5 (0 votes)

Hard to play? Try these video lessons and learn fast.
                This tab is not close to 100% correct, please contribute.
h=Hammer-on

Riff One (Listen for the timing.)
E|---------------------------------------------|
B|---------------------------------------------|
G|-------6--------------6----------------------|
D|-9------------------9------------------------|
A|---------------------------------------------|
E|---------------------------------------------|

Main Riff
E|----------------------7h8--10h11-------------|
B|-------------7h8--11-------------------------|
G|-----7h9h10----------------------------------|
D|-11------------------------------------------|
A|---------------------------------------------|
E|---------------------------------------------|

What a tragedy.
Aaliyah Dana Haughton 
Jan. 16 1979- Aug. 25 2001
            
Hard to play? Try these video lessons and learn fast. | Correct




comments powered by Disqus
↑ Back to top | Tablatures and chords are parodies/interpretations of the original songs. You may use it for private study, scholarship, research or language learning purposes only