» » »

Vice Rag Tabs (ver.3)

Artists:  A B C D E F G H I J K L M N O P Q R S T U V W X Y Z # 

Vice Rag Tabs (ver.3)

Aa Bondy
Rating:
0/5 (0 votes)

Hard to play? Try these video lessons and learn fast.
                Tuning: (high) D B G D G D (low)
Capo 3


Intro/Outro/Bridge:

|-9-------7-----------5---0-------2---5-------------------------|
|-----------8-----5-----------------3---5---3-----1---0---------|
|---0---0-------0---0---0---0---0---------------0---------0-----|
|-----0-------0-------0-------0-------0-------0-------0---------|
|-0-------0-------0-------0-------0-------0-------0-------0-----|
|---------------------------------------------------------------|

Verse

|--------------------------------------------------------------------|
|-------0-------0-------0-------0-------0-------0-------0-------0----|
|---0-------0-------0-------0-------0-------0-------0-------0--------|
|-----0-------0-------0-------0-------0-------0-------0-------0------|
|-0-------0-------0-------0-------0-------0-------0-------0----------|
|--------------------------------------------------------------------|


|-----------------------------------------------------------|
|-------1-------0-------1-------0-------3-------3------3----|
|---0-------0-------0-------0-------0-------0-------0-------|
|-----2-------0-------2-------0-------0-------0-------0-----|
|-0-------0-------0-------0-------0-------0-------0---------|
|-----------------------------------------------------------|


|---------0h2-----2h5-----2p0-------------0h2----2h5-2---0--------------x----|
|-----0---------------------------0----------------------------0---------x---|
|---0-----------0-------0-------0-------0-------0-----------------0------x---|
|-----0-------0-------0-------0-------0-------0-------0-------0----------x---|
|-0-------0-------0-------0-------0-------0-------0-------0-------0------x---|
|-------------------------------------------------------------------------x--|





LYRICS:


INTRO

Sweet, sweet cocaine
Won't you be all mine
Heart'll pound, my hands will shake
I'm doin' mighty fine

Sweet, sweet heroin
Won't you be all mine
I don't wanna feel a thing
Want nothin' on my mind

Sweet, sweet whiskey
Won't you be all mine
If you were to fill the ocean
I would drink it dry

BRIDGE

Sweet, sweet devil
Won't you be all mine
Set this tired land aflame
It ain't worth a dime

Sweet, sweet Jesus
Won't you be all mine
If you take my sinner's hand
We'll walk down the line

OUTRO
            
Hard to play? Try these video lessons and learn fast. | Correct




comments powered by Disqus
↑ Back to top | Tablatures and chords are parodies/interpretations of the original songs. You may use it for private study, scholarship, research or language learning purposes only