» » »

Vice Rag Tabs (ver.2)

Artists:  A B C D E F G H I J K L M N O P Q R S T U V W X Y Z # 

Vice Rag Tabs (ver.2)

Aa Bondy
Rating:
0/5 (0 votes)

Hard to play? Try these video lessons and learn fast.
                ---------------------------------------------------------------------------------


---------------------------------------------------------------------------------

Capo at the third fret.

Tuning: 
e|-		 G|-
B|-		 D|-
G|-		Bb|-
D|-		 F|-
A|-		 C|-
G|-		Bb|-

---------------------------------------------------------------------------------
Section A:

|---5/7-----5p3-----|-------3-----------|-------3-----------|-------------------|
|-------------------|--/5-------3-------|---3h5---5---3--(0)|--h1---0-----------|
|-------------------|-------------------|-------------------|-------------------|
|-------0-------0---|-------0-------0---|-------0-------0---|-------0-------0---|
|-------------------|-------------------|-------------------|-------------------|
|---0-------0-------|---0-------0-------|---0-------0-------|---0-------0-------|

|---5/7-----5p3-----|-------3-----------|-------3-----------|-------------------|
|-------------------|--/5-------3-------|---3h5---5---3--(0)|--h1---0-----------|
|-------------------|-------------------|-------------------|-----------0-------|
|-------0-------0---|-------0-------0---|-------0-------0---|-------0-----------|
|-------------------|-------------------|-------------------|-------------------|
|---0-------0-------|---0-------0-------|---0-------0-------|---0-------0-------|

Section B (Verse):

|-------------------|-------------------|-------------------|-------------------|
|-----0-------0-----|----0--------0-----|-----0-------0-----|-----0-------0-----|
|---------0-------0-|---------0-------0-|---------0-------0-|---------0-------0-|
|-------0-------0---|-------0-------0---|-------0-------0---|-------0-------0---|
|-------------------|-------------------|-------------------|-------------------|
|---0-------0-------|---0-------0-------|---0-------0-------|---0-------0-------|

|-------------------|-------------------|-------------------|-------------------|
|-----1-------0-----|----1--------0-----|-----3-------3-----|-------0---3h5-----|
|---------0-------0-|---------0-------0-|---------2-------2-|-------------------|
|-------2-------0---|-------2-------0---|-------4-------4---|-------0-------0---|
|---3---------------|---3---------------|---5-------5-------|-------------------|
|-----------0-------|-----------0-------|-------------------|---0-------0-------|

|---0h3-------------|-------------------|---0h3-------------|-----------SLAP----|
|-----------3h5-----|---0-------3h5-----|-------5---3---0---|-----------SLAP----|
|-------------------|-------------------|-------------------|---0-------SLAP----|
|-------0-------0---|-------0-------0---|-------0-------0---|-----------SLAP----|
|-------------------|-------------------|-------------------|-----------SLAP----|
|---0-------0-------|---0-------0-------|---0-------0-------|---0-------SLAP----|

---------------------------------------------------------------------------------
Song Structure:

A

B
B
B

A

B
B

A

---------------------------------------------------------------------------------
Notes:

1. Still not quite sure about the picking pattern for the V chord.
2. The preceding is merely an outline. Listen to the recording for intricacies.

| /  slide up
| \  slide down
| h  hammer-on
| p  pull-off
| ~  vibrato
| +  harmonic
| x  Mute note
=================================================================================
            
Hard to play? Try these video lessons and learn fast. | Correct




comments powered by Disqus
↑ Back to top | Tablatures and chords are parodies/interpretations of the original songs. You may use it for private study, scholarship, research or language learning purposes only