» » »

Aa Bondy, Vice Rag Tabs (ver.1)

Artists:  A B C D E F G H I J K L M N O P Q R S T U V W X Y Z # 

Vice Rag Tabs (ver.1)

Aa Bondy Tabs
 Rating:
4.5/5 (8 votes)
Vice Rag lessons Tabs too difficult? Try these video lessons and learn fast
                _____________________________________________

Vice Rag by A.A. Bondy
_____________________________________________

OPEN G TUNING – CAPO 3
All notes play relative to capo
This song is played country blues fingerstyle
IMPORTANT: The base notes MUST be consistent throughout
As with all tab, but especially with the blues,
The time is not noted here. Listen to the track 
And try to feel it out…old bluesmen passed
these type of songs on by listening and feeling,
not by tab.

Please let me know if you have any corrections!


h = hammer-on
p = pull-off
/ = slide
x = Mute & SLAP!


INTRO/OUTRO:
|--9---7/5--2-5-0---2p0-5-2--0----------------------------------------------|
|------------------------------1-0------------------------------------------|
|---------------------------------------------------------------------------|
|----0---0----0---0-----0----0---0------------------------------------------|
|--0---0----0---0---0------0---0---0----------------------------------------|
|---------------------------------------------------------------------------|

|--9---7/5--2-5-0---2p0-5-2--0----------------------------------------------|
|------------------------------1-0------------------------------------------|
|----------------------------------0----------------------------------------|
|----0---0----0---0-----0----0---0------------------------------------------|
|--0---0----0---0---0------0---0---0----------------------------------------|
|---------------------------------------------------------------------------|

VERSE:
|-------------------------------------------------------0h2-2h5-2p0---------|
|---0---0---0---0---0---0---0---0---1---0---1---0h3-3-0-------------0-------|
|-0---0---0---0---0---0---0---0---0---0---0---0---0-------------------------|
|---0---0---0---0---0---0---0---0---2---0---2---0---0---0-------0-----------|
|-0---0---0---0---0---0---0---0---0---0---0---0---0---0-----0-------0-------|
|---------------------------------------------------------------------------|

|--0h2-2h5-2-0-------x------------------------------------------------------|
|--------------0-----x------------------------------------------------------|
|----------------0---x------------------------------------------------------|
|--0-------0---0-----x------------------------------------------------------|
|------0-----0---0---x------------------------------------------------------|
|--------------------x------------------------------------------------------|


LYRICS:


INTRO/OUTRO
Sweet, sweet cocaine
Won't you be all mine
Heart'll pound, my hands will shake
I'm doin' mighty fine

Sweet, sweet heroin
Won't you be all mine
I don't wanna feel a thing
Want nothin' on my mind

Sweet, sweet whiskey
Won't you be all mine
If you were to fill the ocean
I would drink it dry
INTRO/OUTRO

Sweet, sweet devil
Won't you be all mine
Set this tired land aflame
It ain't worth a dime

Sweet, sweet Jesus
Won't you be all mine
If you take my sinner's hand
We'll walk down the line
INTRO/OUTRO
            
Submit corrections

comments powered by Disqus
↑ Back to top | Aa Bondy Tabs for Vice Rag. Lyrics for acoustic guitar and electric guitar. Tablatures and chords are parodies/interpretations of the original songs. You may use it for private study, scholarship, research or language learning purposes only